Chordie logo


Bitter    Deadlights



 ----------------------------------------------------------------------------------------------

	     SONG: Bitter
	     BAND: The Deadlights
	    ALBUM: The Deadlights
   TRANSCRIBED BY: Alex Light (DigitalMaggit@aol.com)

 ----------------------------------------------------------------------------------------------

	TUNING: tune to drop d and then down half a step(Db,Ab,Db,Gb,Bb,Eb)

     INTRO: (w/ wah - guitar 2)

   Eb|----------------------------------------------|-----|
   Bb|----------------------------------------------|-----|
   Gb|--7------7--------7---8p7---------------------|-----|
   Db|------0-------0-----------------0-------------|--0--|
   Ab|----------------------------------------------|--0--|
   Db|----------------------------------------------|--0--|

     CHORUS: (played really fast)

   Eb|-------------------------------------------------------------|
   Bb|-------------------------------------------------------------| 
   Gb|-------------------------------------------------------------|
   Db|---6p0---0----6p0----0----6--5-------------------------------| 
   Ab|---6p0---0----6p0----0----6--5-------------------------------| 
   Db|---6p0---0----6p0----0----6--5-------------------------------|

     FILLS 1 & 2: (before solo)

   Eb|-----------------------------------------------------------|
   Bb|-----------------------------------------------------------|
   Gb|-----------------------------------------------------------|
   Db|----656565656x6-----------------654x---676-----------------|
   Ab|----656565656x6-----------------654x---454-----------------|
   Db|----656565656x6-----------------654x-----------------------|

     SOLO:

   Eb|-----------------------------------------------------------|
   Bb|-----------------------------------------------------------|
   Gb|--------77777777-121212121212121212-77777777-666666666-----|
   Db|-----------------------------------------------------------|
   Ab|-----------------------------------------------------------|
   Db|-----------------------------------------------------------|

     VERSE BEFORE OUTRO:

     "you will never forget my face!"

   Eb|-------------------------------------|
   Bb|-------------------------------------|
   Gb|-------------------------------------|  listen to the song for the beat of this chord
   Db|----12-------------------------------|  he plays it tons oftimes
   Ab|----12-------------------------------|
   Db|----12-------------------------------|



Important: The song above is NOT stored on the Chordie server. The original song is hosted at www.xguitar.com. Chordie works as a search engine and provides on-the-fly formatting. Chordie does not index songs against artists/composers will. To remove this song please click here.

This song is displayed as text-only. Transposing and tuning is only available for chordpro-songs.

Login - add to songbook

Rating click stars to rate

Layout
Accuracy

SHARE PAGE  




You need to log in to post comments