Guitar Tabs, Chords and Lyrics


Long Way Home   Offspring



Band: The Offspring
Song: Long Way Home
Album: Splinter
Year: 2003
HeterophobicTWAT

Intro:
e|--------------------------------------|
b|--------------------------------------|
G|-9/12-11-9-7-9-9/12-11-9-7-9-7-4-7-9--|
D|--------------------------------------|
A|-7/10-9--7-5-7-7/10-9--7-5-7-5-2-5-7--|
E|--------------------------------------|

Verse:
e|-------------|---------------------------------|
b|-------------|---------------------------------|
G|-9-9--7------|-9-9-11-9-9-9-------5-5-7-7------|
D|-9-9--7-(x8)-|-9-9-11-9-9-9-7-7-7-5-5-7-7-(x2)-|
A|-7-7--5------|-7-7-9--7-7-7-7-7-7-3-3-5-5------|
E|-------------|--------------5-5-5--------------|

e|------------------------------------------------|
b|------------------------------------------------|
G|-9-9-7-9-9-9-12-12-12-12-12-55-5-5-55-77-7-7-77-|
D|-9-9-7-9-9-9-12-12-12-12-12-55-5-5-55-77-7-7-77-|
A|-7-7-9-7-7-7-10-10-10-10-10-33-3-3-33-55-5-5-55-|
E|------------------------------------------------|

e|---------------------------------|
b|---------------------------------|
G|-9-9-11-9-9-9-------5-5-7-7------|
D|-9-9-11-9-9-9-7-7-7-5-5-7-7-(x2)-|
A|-7-7-9--7-7-7-7-7-7-3-3-5-5------|
E|--------------5-5-5--------------|

e|------------------------------------------------|
b|------------------------------------------------|
G|-9-9-7-9-9-9-12-12-12-12-12-55-5-5-55-77-7-7-77-|
D|-9-9-7-9-9-9-12-12-12-12-12-55-5-5-55-77-7-7-77-|
A|-7-7-9-7-7-7-10-10-10-10-10-33-3-3-33-55-5-5-55-|
E|------------------------------------------------|

Chorus:
e|-------------------------------|--------|
b|-------------------------------|--------|
G|-9-99-12--12-12-7-77---7-------|-5.--7--|
D|-9-99-12--12-12-7-77-7-7--(x3)-|-5.--7--|
A|-7-77-10--10-10-5-55-7-5-------|-3.--5--|
E|---------------------5---------|--------|

Verse2:
e|-------------|---------------------------------|
b|-------------|---------------------------------|
G|-9-9--7------|-9-9-11-9-9-9-------5-5-7-7------|
D|-9-9--7-(x4)-|-9-9-11-9-9-9-7-7-7-5-5-7-7-(x2)-|
A|-7-7--5------|-7-7-9--7-7-7-7-7-7-3-3-5-5------|
E|-------------|--------------5-5-5--------------|
                 P.M.......................

e|------------------------------------------------|
b|------------------------------------------------|
G|-9-9-7-9-9-9-12-12-12-12-12-55-5-5-55-77-7-7-77-|
D|-9-9-7-9-9-9-12-12-12-12-12-55-5-5-55-77-7-7-77-|
A|-7-7-9-7-7-7-10-10-10-10-10-33-3-3-33-55-5-5-55-|
E|------------------------------------------------|
   P.M.......................

e|---------------------------------|
b|---------------------------------|
G|-9-9-11-9-9-9-------5-5-7-7------|
D|-9-9-11-9-9-9-7-7-7-5-5-7-7-(x2)-|
A|-7-7-9--7-7-7-7-7-7-3-3-5-5------|
E|--------------5-5-5--------------|

e|------------------------------------------------|
b|------------------------------------------------|
G|-9-9-7-9-9-9-12-12-12-12-12-55-5-5-55-77-7-7-77-|
D|-9-9-7-9-9-9-12-12-12-12-12-55-5-5-55-77-7-7-77-|
A|-7-7-9-7-7-7-10-10-10-10-10-33-3-3-33-55-5-5-55-|
E|------------------------------------------------|

Chorus2:
e|-------------------------------|
b|-------------------------------|
G|-9-99-12--12-12-7-77---7-------|
D|-9-99-12--12-12-7-77-7-7--(x3)-|
A|-7-77-10--10-10-5-55-7-5-------|
E|---------------------5---------|

e|--------------------------------------|
b|--------------------------------------|
G|-9/12-11-9-7-9-9/12-11-9-7-9-7-4-7-9--|
D|--------------------------------------|
A|-7/10-9--7-5-7-7/10-9--7-5-7-5-2-5-7--|
E|--------------------------------------|

Interlude:
e|-------------|-------------------------------|
b|-------------|-------------------------------|
G|-9-9--7------|-12-11-99-7-99-7-99-7-9-7------|
D|-9-9--7-(x8)-|-12-11-99-7-99-7-99-7-9-7-(x2)-|
A|-7-7--5------|-10-9--77-5-77-5-77-5-7-5------|
E|-------------|-------------------------------|

e|-------------------------------------|
b|-------------------------------------|
G|-55555555-77777777--44-4-4-44-4444-4-|
D|-55555555-77777777--44-4-4-44-4444-4-|
A|-33333333-55555555--22-2-2-22-2222-2-|
E|-------------------------------------|
   P.M..............

Chorus (x2)


Important: The song above is NOT stored on the Chordie server. The original song is hosted at www.xguitar.com. Chordie works as a search engine and provides on-the-fly formatting. Chordie does not index songs against artists'/composers' will. To remove this song please click here.

This song is displayed as text-only. Transposing and tuning is only available for chordpro-songs.

Login - add to songbook

Rating click stars to rate

Layout
Accuracy

SHARE PAGE  




You need to log in to post comments