Guitar Tabs, Chords and Lyrics


The Noose   Offspring



----------------------------------------------
Artist: The Offspring
Title: The Noose
Tabbed By: Robert Rozing (z5_robert@yahoo.com)
----------------------------------------------
Legend:

* = strum numerous times (listen to the song)
P.M. = Palm mute
b = bend


----------------------------------------------

[INTRO] (With a little palmmuting here and there)
e|---------------------------------------------------------------------|
B|---------------------------------------------------------------------|
G|---------------------------------------------------------------------|
D|-----9-----9-------5-5--5--5-5-------4---5---4---------4---5---4-----|
A|-7-7---7-7-----------------------5-5---5---5---5---7-7---7---7---7---| (4x)
E|---------------5-3-----3--3------------------------------------------|

e|----------------------|
B|-----8--15--20--------|
G|----------------------|
D|-2~--5--12--17---2~---|
A|-2~--------------2~---|
E|-0~--------------0~---|

[VERSE]
e|-----|
B|-----|
G|-----|
D|-----|
A|-222-|
E|-000-|  

Important: The song above is NOT stored on the Chordie server. The original song is hosted at www.xguitar.com. Chordie works as a search engine and provides on-the-fly formatting. Chordie does not index songs against artists/composers will. To remove this song please click here.

This song is displayed as text-only. Transposing and tuning is only available for chordpro-songs.

Login - add to songbook

Rating click stars to rate

Layout
Accuracy

SHARE PAGE  




You need to log in to post comments