Guitar Tabs, Chords and Lyrics


When You're in Prison   Offspring



Offspring - When You're In Prison
Submitted By: Anavrin
EMail: joe_the_man3@hotmail.com
Album: Splinter (2003)
As tabbed by Joe Muggah


Arranged for guitar


Intro
e|---------------------------------|
B|---------------------------------|
G|------3-------3-------3------3---|
D|------5-------5-------5------5---|
A|--6---------------6--------------|
E|----------6---------------6------|


Verse
e|--------------------------------------------------------------|
B|--------------------------------------------------------------|
G|------3-------3-------5------------3-------3------3-------3---|
D|------5-------5-------7------------5-------5------5-------5---|
A|--6---------------8--------------------5-------6--------------|
E|----------6--------------4--5--6----------------------6-------|

(continued)
e|--------------------------------------------------------------|
B|--------------------------------------------------------------|
G|------3-------3-------5------------3-------3------3-----------|
D|------5-------5-------7------------5-------5------5-----------|
A|--6---------------8--------------------5-------6--------------|
E|----------6--------------4--5--6----------------------6--5----|


Chorus
e|--------------------------------------------------------------|
B|--------------------------------------------------------------|
G|-----5-------5-------4-------4-------3--------3-------3-------|
D|-----6-------6-------6-------6-------5--------5-------5-------|
A|---------------------------------6----------------6-----------|
E|-4-------4-------4-------4----------------6--------------6--5-|

(continued)
e|--------------------------------------------------------------|
B|--------------------------------------------------------------|
G|-----5-------5-------4-------4-------6-------6-----5-3--------|
D|-----6-------6-------6-------6-------7-------7----------6-5-3-|
A|---------------------------------8-------8--------------------|
E|-4-------4-------4-------4----------------------6-------------|


Outro
e|--------------------------------------------------------------|
B|--------------------------------------------------------------|
G|------3-------3-------5------------3-------3------3-------3---|
D|------5-------5-------7------------5-------5------5-------5---|
A|--6---------------8--------------------5-------6------6-------|
E|----------6--------------4--5--6------------------------------|

(continued)
e|--------------------------------------------------|
B|--------------------------------------------------|
G|------3-------3-------3-------3--------3-------3--|
D|------5-------5-------5-------5--------5-------5--|
A|----------5-------6-------6----------------5------|
E|--6--------------------------------6--------------|

(continued)
e|--------------------------------------------------------------|
B|-----------------------------------------------------4-4-4-4--|
G|-----5-------5-------4-------4-------3-------3-------3-3-3-3--|
D|-----6-------6-------6-------6-------5-------5-------5-5-5-5--|
A|---------------------------------6-------6-------6---6-6-6-6--|
E|-4-------4-------4-------4------------------------------------|



Intro
Verse
Chorus
Verse
Chorus
Verse


Important: The song above is NOT stored on the Chordie server. The original song is hosted at www.xguitar.com. Chordie works as a search engine and provides on-the-fly formatting. Chordie does not index songs against artists/composers will. To remove this song please click here.

This song is displayed as text-only. Transposing and tuning is only available for chordpro-songs.

Login - add to songbook

Rating click stars to rate

Layout
Accuracy

SHARE PAGE  




You need to log in to post comments