Here Comes Your Man

Pixies

 E---------------------------------------------|

 B---------------------------------------------|

 G---------------------------------------------|

 D--------4--4--5---------------------0--2-----|

 A--5--5-----------0------2--0--0--4--------5--|

 E--------------------3------------------------|


 Intro riff 3 times

verse:

   E-------------------------------------------------------------|
   B----------7--------------------14-----------------8----------|
   G-----7-------7---7------14---------14--------9-------9---9---|
   D--\7--(7)------7----\14----14---------14/--9---9-------9-----|
   A-------------------------------------------------------------|
   E-------------------------------------------------------------|
   E-----------------------|
   B-------------12--------|
   G------12--------12-----|
   D--\12----12--------12/-|
   A-----------------------|
   E-----------------------|


 DA
   Outside there's a box car waiting
 EmG
   Outside the family stew
 DA
   Out by the fire breathing
 EmG
   Outside we wait til face turns blue
 DA
   I know the nervous walking
 EmG
   I know the dirty beard hangs
 DA
   Out by the box car waiting
 EmG
   Take me away to nowhere plains
 Bridge
 BmGAD
   E-----------------------------------------------------|
   B--12-12-12-12-12-12-12-12--12-(8x)--10-(8x)--15-(9x)-|
   G--11-11-11-11-11-11-11-11--12--------9-------14------|
   D-----------------------------------------------------|
   A-----------------------------------------------------|
   E-----------------------------------------------------|

 BmGA
   There is a wait so long (so long so long)
 D
  You'll never wait so long
 Cborus -- play witb intro riff
 GAD3 times
     Here comes your man  
 Solo
   E----------------------------------------------------------------|
   B----------------------------------------------------------------|
   G--11--9-------------------------9---11--9----------11-11-9----9-|
   D---------12--12--11--11--11h12-------------12--12----------12---|
   A----------------------------------------------------------------|
   E----------------------------------------------------------------|

 play similar tbrougbout verse
 ?
They shake on the boxcar moving 
They shake to the land that's falling down
Is a wind makes-a palms start blowing
A big big storm fall and break my crown
 Bridge
 Cborus
[Chords through solo:  D  A  Em  G ]
 solo
[note: what follows is an approximation for one guitar. There are about
three audible guitars on this solo]
   E--------------------------------------------------------------|
   B--15-15-15-17-15-17-15----------------------------------------|
   G--14-14-14-14-14-14-14--14-14-16-14-16-14--12-12-14-12-14-12--|
   D------------------------14-14-14-14-14-14--12-12-12-12-12-12--|
   A--------------------------------------------------------------|
   E--------------------------------------------------------------|

(3x)
   E------------------|--------------------------------------------|
   B------------------|--------------------------------------------|
   G--12--12-12-12-12-|--------------------------------------------|
   D--14--14-14-14-14-|--12-12-12--12-12-12-12\14-14-14--14-14-14--|
   A------------------|--------------------------------------------|
   E------------------|--------------------------------------------|
   E---------------------------------------------|
   B---------------------------------------------|
   G---------------------------------------------|
   D--14/12-12-12--12-12-12-12\14-14-14--14-14---|
   A---------------------------------------------|
   E---------------------------------------------|

 Bridge
 Repeat cborus to finisb on D


A Bm D Em G
variations - click chord images
Transpose chords:
Tuning:
Cool service:
View: Size:
A  A  A
Rating:
Layout:
  • Currently 3/5 Stars.
  • 1
  • 2
  • 3
  • 4
  • 5
 
Accuracy:
  • Currently 2.8/5 Stars.
  • 1
  • 2
  • 3
  • 4
  • 5
 
click stars to rate
Chordie recommends:
Learn to play songs at Jamplay.com with video guitar lessons
Songbook:
Login to add this song to your songbook
Support the artist
Preview/buy this song
MSN Music
Why this non-profit ad?

 
login to add comments/video/corrections