Guitar Tabs, Chords and Lyrics


U-Mass   Pixies



THE PIXIES
                                     U-MASS


   This is a easy song. Standard Tuning.



    Intro/Verse
E|----------------------------------|
B|----------------------------------|
G|--------------------5-----7-------|        (listen to song for strumming pattern)
D|-----5-----3--------5-----7-------|
A|-----5-----3--------3-----5-------|
E|-----3-----1----------------------|




     Chorus
E|---------------------------------|
B|---------------------------------|
G|---------5-----------------------|
D|----5----5-------3-------3-------|
A|----5----3-------3-------3-------|
E|----3------------1-------1-------|





     Solo (guitar 1)
E|-------------------------------------------------------------------------|
B|-------------------------------------------------------------------------|
G|-----13^---13^---13^----13^-----13^-----13^----13^-----13^---------------|
D|-------------------------------------------------------------------------|
A|-------------------------------------------------------------------------|
E|-------------------------------------------------------------------------|
          Then scratch away with a slide


 Solo (guitar 2)
      While guitar 1 is scratching play the chorus part



Important: The song above is NOT stored on the Chordie server. The original song is hosted at www.xguitar.com. Chordie works as a search engine and provides on-the-fly formatting. Chordie does not index songs against artists'/composers' will. To remove this song please click here.

This song is displayed as text-only. Transposing and tuning is only available for chordpro-songs.

Login - add to songbook

Rating click stars to rate

Layout
Accuracy

Jango Player

SHARE PAGE  




You need to log in to post comments