Chordie logo

12:51   Strokes



The Strokes-12:51
Standard Tuning(EADGBe)

~ = Let Ring

e|---------------------------------|
B|-9-5-7-5-9-7~-5~-7~-4-5-4-7-5~-4-|
G|---------------------------------|
D|---------------------------------|
A|---------------------------------|
E|---------------------------------| x2

e|-------------------------------------------|
B|-12-9-7-9-12-9~-7~-9~-12-9-7-9-5~-9~-7~-9~-|
G|-------------------------------------------|
D|-------------------------------------------|
A|-------------------------------------------|
E|-------------------------------------------| x2

e|---------------------------------|
B|-9-5-7-5-9-7~-5~-7~-4-5-4-7-5~-4-|
G|---------------------------------|
D|---------------------------------|
A|---------------------------------|
E|---------------------------------|

e|-----------------------------------|
B|-9-5-7-5-9-12-10-9-7~-4-5-4-7-5~-4-|
G|-----------------------------------|
D|-----------------------------------|
A|-----------------------------------|
E|-----------------------------------|

e|-------------------------------------------|
B|-12-9-7-9-12-9~-7~-9~-12-9-7-9-5~-9~-7~-9~-|
G|-------------------------------------------|
D|-------------------------------------------|
A|-------------------------------------------|
E|-------------------------------------------| x2

	 8 second pause.
               ______|______
e|---------------------------------------|
B|-13-15-12-13---------------17-15-------|
G|---------------------------------17-16-|
D|---------------------------------------|
A|---------------------------------------|
E|---------------------------------------| x2

Wait 6 seconds from last part then play this part.
e|-----------------------------------|
B|-17--13-15-12----15-12-17-15-------|
G|---------------14------------17-16-|
D|---14--------14--------------------|
A|-----------------------------------|
E|-----------------------------------|

Wait 6 seconds from last part then play this part.
	 8 second pause.
	  ______|______
e|---------------------------------------|
B|-13-15-12-13---------------17-15-------|
G|---------------------------------17-16-|
D|---------------------------------------|
A|---------------------------------------|
E|---------------------------------------|

e|---------------------------------|
B|-9-5-7-5-9-7~-5~-7~-4-5-4-7-5~-4-|
G|---------------------------------|
D|---------------------------------|
A|---------------------------------|
E|---------------------------------| x2


e|-----------------------------------|
B|-9-5-7-5-9-12-10-9-7~-4-5-4-7-5~-4-|
G|-----------------------------------|
D|-----------------------------------|
A|-----------------------------------|


Important: The song above is NOT stored on the Chordie server. The original song is hosted at www.xguitar.com. Chordie works as a search engine and provides on-the-fly formatting. Chordie does not index songs against artists/composers will. To remove this song please click here.

This song is displayed as text-only. Transposing and tuning is only available for chordpro-songs.

Login - add to songbook

Rating click stars to rate

Layout
Accuracy

Jango Player

SHARE PAGE  

You need to log in to post comments