Guitar Tabs, Chords and Lyrics


Automatic Stop   Strokes



Tabbed by:emesk8rbk	
Strokes: Automatic Stop
Album: Room on Fire

Tablature explanation:
h = hammer on
p = pull off
^ = bend full
b = bend half
r = release bend
/ = slide up
\\ = slide down

AUTOMATIC STOP:

E|-9-9--9-9---1111-1111—-9-9--9-9---1111-1111------|
B|-1111-1111--1111-1111—-1111-1111--1111-1111------|
G|-1111-1111--1111-1111--1010-1010-----------------| X2
D|-------------------------------------------------|
A|-------------------------------------------------|
E|-------------------------------------------------|

E|-9-9--9-9--9-9--9-9---1111-1111-1111-1111--------|
B|-1111-1111-1111-1111--1111-1111-1111-1111--------|
G|-1111-1111-1111-1111--1111-1111-1111-1111--------|
D|-------------------------------------------------|
A|-------------------------------------------------|
E|-------------------------------------------------|
	                                             X2
E|-9-9--9-9--9-9--9-9—-9-9--9-9--9-9--9-9----------|
B|-1111-1111-1111-1111-1111-1111-1111-1111---------|
G|-1010-1010-1010-1010-1010-1010-1010-1010---------|
D|-------------------------------------------------|
A|-------------------------------------------------|
E|-------------------------------------------------|

E|-------------------------------------------------|
B|-------------------------------------------------|
G|-------------------------------------------------|
D|-----------1010101010888888----------------------|
A|-9999999999------------------99999---------------|
E|-------------------------------------------------|

E|-------------------------------------------------|
B|-------------------------------------------------|
G|-------------------------------------------------|
D|-----------888888777777--------------------------|
A|-8888888888------------88888---------------------|
E|-------------------------------------------------|

E|-------------------------------------------------|
B|-------------------------------------------------|
G|-------------------------------------------------|
D|-----------10101010108888888---------------------|
A|-9999999999-----------------99999888888888-------|
E|-------------------------------------------------|

E|----------------------------------------------------|
B|-11--11----9--9--9----7-7-7-7-7-7---9--9--------9---|
G|---11--11---10-10-10---8-8-8-8-8-8---11-11-10-11-11-|
D|----------------------------------------------------|
A|----------------------------------------------------|
E|----------------------------------------------------|
                                                       X2
E|-------------------------------------------------|
B|-9--9--9--9--9--9--------------------------------|
G|--11-11-11-11-11-11------------------------------|
D|-------------------------------------------------|
A|-------------------------------------------------|
E|-------------------------------------------------|

E|-9-9--9-9---1111-1111—-9-9--9-9---1111-1111------|
B|-1111-1111--1111-1111—-1111-1111--1111-1111------|
G|-1111-1111--1111-1111--1010-1010-----------------|
D|-------------------------------------------------|
A|-------------------------------------------------|
E|-------------------------------------------------|


E|-9-9--9-9---1111-1111—-9-9--9-9---1111-1111------|
B|-1111-1111--1111-1111—-1111-1111--1111-1111------|
G|-1111-1111--1111-1111--1010-1010-----------------|
D|-------------------------------------------------|
A|-------------------------------------------------|
E|-------------------------------------------------|

E|-------------------------------------------------|
B|-------------------------------------------------|
G|-------------------------------------------------|
D|-----------1010101010888888----------------------|
A|-9999999999------------------99999---------------|
E|-------------------------------------------------|

E|-------------------------------------------------|
B|-------------------------------------------------|
G|-------------------------------------------------|
D|-----------888888777777--------------------------|
A|-8888888888------------88888---------------------|
E|-------------------------------------------------|

E|-------------------------------------------------|
B|-------------------------------------------------|
G|-------------------------------------------------|
D|-----------10101010108888888---------------------|
A|-9999999999-----------------99999888888888-------|
E|------------------------------------------9999888|

E|-9-9--9-9--9-9--9-9---1111-1111-1111-1111--------|
B|-1111-1111-1111-1111--1111-1111-1111-1111--------|
G|-1111-1111-1111-1111--1111-1111-1111-1111--------|
D|-------------------------------------------------|
A|-------------------------------------------------|
E|-------------------------------------------------|
	
E|-9-9--9-9--9-9--9-9—-9-9--9-9--9-9--9-9----------|
B|-1111-1111-1111-1111-1111-1111-1111-1111---------|
G|-1010-1010-1010-1010-1010-1010-1010-1010---------|
D|-------------------------------------------------|
A|-------------------------------------------------|
E|-------------------------------------------------|

E|-------------------------------------------------------|
B|-11--11--11---9--9--9----7-7-7-7-7-7---9--9--------9---|
G|---11--11--11--10-10-10---8-8-8-8-8-8---11-11-10-11-11-|
D|-------------------------------------------------------|
A|-------------------------------------------------------|
E|-------------------------------------------------------|
                                                         X2
E|-------------------------------------------------|
B|-9--9--9--9--9--9--------------------------------|
G|--11-11-11-11-11-11------------------------------|
D|-------------------------------------------------|
A|-------------------------------------------------|
E|-------------------------------------------------|


Hey if you have any updates on this song email me.


Important: The song above is NOT stored on the Chordie server. The original song is hosted at www.xguitar.com. Chordie works as a search engine and provides on-the-fly formatting. Chordie does not index songs against artists'/composers' will. To remove this song please click here.

This song is displayed as text-only. Transposing and tuning is only available for chordpro-songs.

Login - add to songbook

Rating click stars to rate

Layout
Accuracy

SHARE PAGE  




You need to log in to post comments