Guitar Tabs, Chords and Lyrics


You Talk Way Too Much   Strokes



Song: You talk way too much
Artist: The strokes
Album: Room on fire

Tabbed by Luigino DÂ’Andrea
(if you look at the bottom of this tab there is an alternative.
if possible please state which you think is better via corrections.
this is the strokes amazing song from thier album Room On Fire.
I think it sounds really good and is quite simple to play.

AN AMAZING SONG FROM AN AMAZING BAND!!!

The intro is quite easy to get the hang of

E-------------------------------------------------------------
B-------------------------------------------------------------
G---1--1--4--4---4--6--6---9----9---9--9--9-----------
D---2--2--5--5---5--7--7---10--10--10-10-10---------- X2
A---2--2--5--5---5--7--7---10--10--10-10-10----------
E-------------------------------------------------------------

And then go into this Riff with guitar 1

E---------------------------------------------------
B---------------------------------------------------
G---------------------------------------------------
D---13--11--13-11-13-11-11-----11-----11-----11-----
A---------------------------------14-----14-----14--
E---------------------------------------------------

While guitar one is playing Riff 1 guitar 2 plays these backing chords

E-------------------------------------------------------------
B-------------------------------------------------------------
G-------------------------------------------------------------
D-----7--7--7--7--7-7---7--7--7- 2---2-2-2-2-2-2-2---- (listen for strumming)
A-----7--7--7--7--7-7---7--7--7- 2---2-2-2-2-2-2-2----
E-----5--5--5--5--5--5--5--5--5--0-- 0-0-0-0-0-0-0----

Then everything stops except for one guitar and the drummer
The guitarist repeats

E----------------------------    ---------------------------------
B----------------------------    ---------------------------------
G---1--1--1--1--1--1------    ---------------------------------
D---2--2--2--2--2--2------or -- 6---6--6--6--6--6-----------
A---2--2--2--2--2--2------    --7-- 7--7--7--7--7-----------
E-----------------------------  7--7--7--7--7--7-----------
 (As many times as needed)

And then go into these chords


E------------------------------------------------------------------------------
B------------------------------------------------------------------------------
G--------------------------------------------------6---6--6--------------------
D---6---6---6---9--9--9----6--6--6---7---7---7-----7---7--7-------------9--9---
A---7---7---7---9--9--9----7--7--7---7---7---7-----7---7--7---7--7- 7---9--9---
E---7---7-- 7---7--7--7----7-- 7-7---5---5---5----------------7--7--7-  7--7---

I will put on the solo as soon as I can because I only have half.

any corrections please let me know and email me at m.dandrea@ntlworld.com



================================================================================
Another way to play.

intro
E-0--0--0-- 0-0-0-0-0-- 0-0-0-- 3-3-3-3--
B-0--0--0-- 3-3-3-3-3-- 2-2-2-- 2-2-2-2--
G-1--1--1-- 1-1-1-1-1-- 2-2-2-- 2-2-2-2--
D-2--2--2-- 2-2-2-2-2-- 2-2-2-- 2-2-2-2--
A-2--2--2-- 2-2-2-2-2-- 0-0-0-- 0-0-0-0--
E-0--0--0-- 0-0-0-0-0-- ------- ---------

then match Julians singing with these notes

E---------------------------------------------------
B---------------------------------------------------
G---------------------------------------------------
D---13--11--13-11-13-11-11-----11-----11-----11-----
A---------------------------------14-----14-----14--
E---------------------------------------------------

while guitar 2 is playing these chords

E--0-0-0-0-0-0-- --0-0-0-0-0-0--
B--2-2-2-2-2-2-- --0-0-0-0-0-0--
G--2-2-2-2-2-2-- --1-1-1-1-1-1--
D--2-2-2-2-2-2-- --2-2-2-2-2-2--
A--0-0-0-0-0-0-- --2-2-2-2-2-2--
E--0-0-0-0-0-0-- --0-0-0-0-0-0--

then one guitarist either nick or albert play just the E chord
after that they play these chords.

E-0--- -- 0 - 0- 2-- --- 2-- --- 0--
B-0--- -- 0 --2- 2-- --- 2-- --- 0--
G-1-- 4-- 1-- 2- 2-- 4-- 2-- 4-- 1--
D-2-- 4-- 2-- 2- 4-- 4-- 4-- 4-- 2--
A-2-- 2-- 2-- 0- 4-- 2-- 4-- 2-- 2--
E-0-- 0-- 0-- -- 2-- 0-- 2-- 0-- 0--












Important: The song above is NOT stored on the Chordie server. The original song is hosted at www.xguitar.com. Chordie works as a search engine and provides on-the-fly formatting. Chordie does not index songs against artists/composers will. To remove this song please click here.

This song is displayed as text-only. Transposing and tuning is only available for chordpro-songs.

Login - add to songbook

Rating click stars to rate

Layout
Accuracy

SHARE PAGE  




You need to log in to post comments