Chordie logo

This Is Music   Verve



Band:  The Verve
Song:  This is Music
Album: A Northern Soul
tabbed by Will Brown
submitted by Krash100

Tuning- standard

KEY
/=Slide
r=release bend
b=bend (note follows in brackets)
h=hammer on
p=pull of

(Using preferably a bridge humbucker with delay and heavy distortion.)

INTRO

|------------------------------------------------------------------
|---------------8-------------------------------------------------
|---9-9p7---------9-9p7----7----------------------------------
|-------------9-----------------9-------9-9p7--5--7-----------
|---------------------------------------------------------7-------
|------------------------------------------------------------------

MAIN RIFF'
(Played thoughout the verse and improvise)

|-------------------------------------------------------------------------
|-------------------------------------------------------------------------
|--9-9p-7---7-----9-9p7--7----------------------------------6-8----
|------------9-----------------9------9-9p7--5--7-------6-8---------
|-----------------------------------------------------7------------------
|-------------------------------------------------------------------------

|-----------------------------------------
|-----------8----------------------------
|--9-9p7----9--------------------------
|-------------------9-9p7--5--7-------
|-----------------------------------7----
|-----------------------------------------

CHORUS
(Play around with the E barre chord)

|--3--3--3---/---5--5---1
|--3--3--3---/---5--5---1
|--4--4--4---/---6--6---2  something like this.....
|--5--5--5---/---7--7---3
|--5--5--5---/---7--7---3
|--3--3--3---/---5--5---1

SOLO
                                                              Tremolo picking (Fast)
|----------------------------------------------------------------------------------------
|----------------------------------------------------------------------------------------
|----------------------------------------------------------------------------------------
|--------------5-7----------------------7h9-7h9-7h9-7h9-7h9--10h12-10h12--
|--/7-7-5-7------7-5-------------/9-------------------------------------------------
|-------------------------7-5-3-0------------------------------------------------------

|-------------------------------------------------------------------------
|-------------------------------------------------------------------------
|--------------------12b(14)-14-14-r12-p10------------------------
|--10h12-10h12--------------------------------12-------------------
|-------------------------------------------------------------------------
|-------------------------------------------------------------------------

The the last bit of the song there is some kind of flange phasing thing
Just play something descending on the 9th 7th and 5th frets



Any questions etc
E-mail me.



Important: The song above is NOT stored on the Chordie server. The original song is hosted at www.xguitar.com. Chordie works as a search engine and provides on-the-fly formatting. Chordie does not index songs against artists/composers will. To remove this song please click here.

This song is displayed as text-only. Transposing and tuning is only available for chordpro-songs.

Login - add to songbook

Rating click stars to rate

Layout
Accuracy

SHARE PAGE  

You need to log in to post comments