eToCache5 = ""; ?> Lucky Man by Verve - guitar chords, guitar tabs and lyrics - chordie

Lucky Man

Verve

-------

 GDAsus4
 Happyness more or less 
 Asus4G
 it's just a change me something in my levity 
 GDAsus4
 o-o-h  m-y m-y..
Verse 2
-------

 GDAsus4
 happyness coming and going 
 Asus4G
 I watch you look at me watch my fever growing, I know
 GDAsus4
 just where I a-m
Bridge
------

 Em
well, how many corners do I have to turn
 G
 how many times do I have to learn
 DAsus4
 all the love I have is in my mind.
Chorus
------

 GDAsus4
But I'm a lucky m-a-a-n
 GDAsus4
with fire in my h-a-a-nds
Verse 3
-------

 GDAsus4
 happyness something in my own place 
 G
I'm stood here naked smiling I feel no disgrace
 DAsus4
with who I a-m
Verse 4
-------

 GDAsus4
 happyness coming and going 
 Asus4G
 I watch you look at me watch my fever growing, I know
 GDAsus4
 just who I a-m 
Bridge
------

 Em
well, how many corners do I have to turn
 G
 how many times do I have to learn
 DAsus4
 all the love I have is in my mind.
 GDAsus4
I hope you underst-a-a-nd
 GDAsus4
I hope you underst-a-a-nd
Middle 8
--------

 GDAsus4
o-o-o-o-o-h-h-h-h 

 Asus4
 no no no no no no no no
 GDAsus4
Gotta love that never d-i-e-s
Verse 5
-------

 GDAsus4
 Happyness more or less 
 Asus4G
 it's just a change me something in my levity 
Verse 6
-------

 GDAsus4
 happyness coming and going 
 Asus4G
 I watch you look at me watch my fever growing, I know
 GDAsus4
 o-o-h, my my - X 4
Middle 8
--------

 GDAsus4
Gotta love that never d-i-e-s  X 3
 Asus4G
 it's just a change me something in my levity  X 3
Fade out
--------

 GDAsus4
 o-o-h, my my - X 2
 Asus4G
 it's just a change me something in my levity 
 GDAsus4
 o-o-h, my my - X 2
------

Tab for Lucky Man (Urban Hymns, Track9). Tabbed by Simon McCarthy
Another great track from the best album of all time (in my opinion), although lead guitarist / god-like figure Nick McCabe doesn't play much of the song. The lead is mostly played by rhythm guitarist Simon Tong. The lead is played clean with compression and delay (The slightest bit of drive may help) and the ambient guitar noises are mostly clean as well.
Tuning: Standard
Scale: G bluescale
Capo: None
Guitar: Lead- Gibson ES355, other- Gibson Les Paul Goldtop / Fender Strat
Effects: Boss Compressor, Watkins Copycat Tape Echo, Alesis Quadraverb, Boss Digital Delay, Marshall Drivemaster, Roland Frequency Cleaner.
Chords:
G= 320002 / 355433
D= xx0232 / 101212111010
Dsus= xx0230
Asus4= 002200
Em= 022000
Intro (6 Bars)- Acoustic -
 GDDsusAsus4
                 (Acoustic plays this throughout verses and chorus as well)
Distort electric plays chords as well.
Nicks guitars play these-
e--------3------3--3--3
b----5------5----5--5--
g-----------------------            (Over the 6 bar intro)
d-----------------------
a-----------------------
e-----------------------

Main lick:
e-------0h2-------------------
b-----------0h3---------------
g----------------0h2---------- (Played on the D chord of bar 3 and 6)
d--2/4------------------------
a-----------------------------
e-----------------------------

Bar4:
e------------------------------
b------------------------------
g------------------------------
d---0h2---0h2------0h2------
a--------4-----4--------------
e------------------------------

All the bars are filled up with sustained notes of chords with the pickup selector switch being moved back and forward with one pickups volume lower that the other. This ambient noise continues throughout the whole song.
Verse-
Happiness, more or less,
It's just a change in me something in my liberty,
oh,oh, my my (Main Lick)
Happiness coming and going,
I watch you look at me, watch my fever grow, and I know,
Just where I am.
Bridge- Em G D Dsus Asus4 (Distort guitar plays arpeggios)
Well how many corners do I have to turn?
How many times do I have to learn
All the love I have is in my mind
Lick2-
e--------------------------
b--------------------------
g---2----------------------
d-2--2---5----------12-----
a-------5--5/-----12----12-
e--------------------------

(Played on the Asus4 chord of the chorus and bridge)
Chorus- G D Dsus Asus4
Cos I'm a lucky man
With fire in my hand
Verse2
Happiness, something in my own place,
I'm stood here naked, smiling, I feel no disgrace,
With who I am.
Bridge repeats
Chorus
I hope you understand (Solo Starts here)
I hope you understand (After this heavy distortchords provide rhythm)
Solo-
e-----------------------------0-------------12-----------------------
b-/3-0-3-3-0----------------0----12h-15-15---------------------------
g-------------2p0-2-2-0-----2-----------------14p12h14-14b16-12------
d------------------------2-- 2-------------------------------------14
a----------------------------0---------------------------------------
e----------------------------0---------------------------------------

etc..
Heavy distort chords-
e--3--3--3--3/-10-10-10-10-----
b--3--3--3--3/-10-10-10-10-----
g--4--4--4--4/-11-11-11-11--2--
d--5--5--3--5/-12-12-10-12--2--
a--5--5--3--5/-12-12-10-12--0--
e--3--3--3--3/-10-10-10-10-----

This continues until a middle break (approx. 3mins 38) where the drums, orchestra and bass cut out returning to the acoustic guitar and the electric overdubs. One electric plays this using the pickup selector switch as before-
e-----------------------------
b--8-8-8-8-10-10-10--------
g----------------------9-9-9-
d-----------------------------
a-----------------------------
e-----------------------------

Another electric plays this over the break constantly repeating until the end of the song-
e------------------------
b------------------------
g--12h14-12h14---------
d------------------------
a------------------------
e------------------------

Then after the four bar break the heavy chords return again with the rest of the band and the song ends about half a minute later.
Comments, corrections etc.please mail me at SMccarthy1@compuserve.com


Asus4 D Dsus Em G
variations - click chord images
Transpose chords:
Tuning:
Cool service:
View: Size:
A  A  A
Rating:
Layout:
  • Currently 3/5 Stars.
  • 1
  • 2
  • 3
  • 4
  • 5
 
Accuracy:
  • Currently 3.3/5 Stars.
  • 1
  • 2
  • 3
  • 4
  • 5
 
click stars to rate
Chordie recommends:
Check out these online guitar lessons
Songbook:
Login to add this song to your songbook
Support the artist
Preview/buy this song
MSN Music
Why this non-profit ad?

 
login to add comments/video/corrections

Scott Beveridge (report comment to admin):
Is that an American spellig of "happiness"?