Guitar Tabs, Chords and Lyrics


I Hate Everything About You    Three Days Grace



Song:I hate everything about you
	Artist: three days grace
	Tabbed by: Matt Filopoulos
	E-mail: Matt5tr@hotmail.com

	tuning: D,A,d,G,B,e
	

	   intro/ verse 1:
	e|------------------------------------------
	B|------------------------------------------
	G|-----6~-------6~------6~------6~-----4-6~-
	d|---4-6~-----4-6~----4-6~----4-6~-----4-6~-
	A|---4--------4-------4-------4------0------
	D|-4------0h4-----0h4-----0h4-------0-------

	-----------------------------|
	-----------------------------|
	----4-6~-----4-6~-----4-6~---|
	----4-6~-----4-6~-----4-6~---| x5
	--0--------0--------0--------|
	-0--------0--------0-------0-|

	  pre chours:
	e|-------------------|
	B|-------------------|
	G|-------------------|
	d|-2----------0------|
	A|-2----------0------|
	D|-2----------0------|


	  chours:
	e|----------------------------------------
	B|----------------------------------------
	G|-------------2-2-2-2-2--2---------------
	d|-4-4---0-0---2-2-2-2-2--2-2-2-2-2-2--2--
	A|-4-4---0-0---0-0-0-0-0--0-2-2-2-2-2--2--
	D|-4-4---0-0----------------2-2-2-2-2--2--

	-------------------------------------------------|
	-------------------------------------------------|
	-------------------------------------------------|
	-4-4-4-4-4--4--0-0-0-0-0--0--2-2-2-2-2--2--7--6--| x2
	-4-4-4-4-4--4--0-0-0-0-0--0--2-2-2-2-2--2--7--6--|
	-4-4-4-4-4--4--0-0-0-0-0--0--2-2-2-2-2--2--7--6--|


	   verse 2:
	e|------------------------------------------
	B|------------------------------------------
	G|-----6~-------6~------6~------6~-----4-6~-
	d|---4-6~-----4-6~----4-6~----4-6~-----4-6~-
	A|---4--------4-------4-------4------0------
	D|-4------0h4-----0h4-----0h4-------0-------

	-----------------------------|
	-----------------------------|
	----4-6~-----4-6~-----4-6~---|
	----4-6~-----4-6~-----4-6~---| x3
	--0--------0--------0--------|
	-0--------0--------0-------0-|

	  pre chours:
	e|-------------------|
	B|-------------------|
	G|-------------------|
	d|-2----------0------|
	A|-2----------0------|
	D|-2----------0------|


	  chours:
	e|----------------------------------------
	B|----------------------------------------
	G|-------------2-2-2-2-2--2---------------
	d|-4-4---0-0---2-2-2-2-2--2-2-2-2-2-2--2--
	A|-4-4---0-0---0-0-0-0-0--0-2-2-2-2-2--2--
	D|-4-4---0-0----------------2-2-2-2-2--2--

	-------------------------------------------------|
	-------------------------------------------------|
	-------------------------------------------------|
	-4-4-4-4-4--4--0-0-0-0-0--0--2-2-2-2-2--2--7--6--| x2
	-4-4-4-4-4--4--0-0-0-0-0--0--2-2-2-2-2--2--7--6--|
	-4-4-4-4-4--4--0-0-0-0-0--0--2-2-2-2-2--2--7--6--|


	  Bridge:
	e|---------------------------------------------------------------|----|
	B|---------------------------------------------------------------|----|
	G|-1-1-1-2-2-2-4-4-1-1-1-2-2-2-4-4-1-1-1-2-2-2-4-4-1-1-1-1h2p1---|-x2-|
	d|-------------------------------------------------------------2-|----|
	A|---------------------------------------------------------------|----|
	D|---------------------------------------------------------------|----|

	----------------------------------|
	----------------------------------|
	--------6~-------6~------6~-------|
	-0----4-6~-----4-6~----4-6~----4--|
	------4--------4-------4-------4--|
	----4------0h4-----0h4-----0h4----|

	  end chours:
	e|----------------------------------------
	B|----------------------------------------
	G|-------------2-2-2-2-2--2---------------
	d|-4-4---0-0---2-2-2-2-2--2-2-2-2-2-2--2--
	A|-4-4---0-0---0-0-0-0-0--0-2-2-2-2-2--2--
	D|-4-4---0-0----------------2-2-2-2-2--2--

	-------------------------------------------------|
	-------------------------------------------------|
	-------------------------------------------------|
	-4-4-4-4-4--4--0-0-0-0-0--0--2-2-2-2-2--2--7--6--| x4
	-4-4-4-4-4--4--0-0-0-0-0--0--2-2-2-2-2--2--7--6--|


Important: The song above is NOT stored on the Chordie server. The original song is hosted at www.xguitar.com. Chordie works as a search engine and provides on-the-fly formatting. Chordie does not index songs against artists/composers will. To remove this song please click here.

This song is displayed as text-only. Transposing and tuning is only available for chordpro-songs.

Login - add to songbook

Rating click stars to rate

Layout
Accuracy

SHARE PAGE  




You need to log in to post comments