Chordie logo


Stinkfist   Tool



Band : Tool
Album: Aenima
Track: 1
Song : Stinkfist

Part : Guitar
Tuning: drop D

Tabbed: Nolan Venhola
Email : nolan@tooltabs.net
Visit : Tooltabs.net

Legend

nh - natural harmonic
 ph - pinch harmonic
 
pm - palm mute
 x - muted string
 
h - hammer on
 p - pull off
 
\\ - slide down
 // - slide up
 
b - bend
 ~~ - vibrato
 
 - natural harmonic
 x/// - pick scrape (directions same as slide)
 


--------------------------------------------------------------------------------
*sampled intro*

(distortion, flange, delay)

*feedback*

                     x7
e-----|-----------------
b-----|-----------------
g-----|-----------------
d-----|-----------------
a-----|---5-------------
d--2--|--------2~~------

(delay off)
               x8                x7
e-----------------|-----------------|-----------------
b-----------------|-----------------|-----------------
g-----------------|-----------------|-----------------
d-----------------|-----------------|-----------------
a--5--------------|--5--------------|--5--------------
d------2-2--2-2---|------2-2--------|------2-2--2-2---
       pm- - -|          pm-               pm- - -|

e--------------------------------------------------------------
b--0--------0-------0--------------0-------0------------0------
g--0--------0-------0--------------0-------0------------0------
d--0---2----0--2----0--2---0--2----0--2----0--2---0--2--0--2---
a------2-------2-------2---0--2-------2-------2---0--2-----2---
d------2-------2-------2---0--2-------2-------2---0--2-----2---

e---------------------------------------------
b-------------------------3-------------------
g-------------------------2-------------------
d--2--2--/10--10----0-----0-----0---x-x--2h3-- x3
a--2--2--/10--10----0-----0-----0---x-x--2h3--
d--2--2--/10--10----0-----0-----0---x-x--2h3--

e------------------------
b------------------------
g------------------------
d--2--2--/10--10---------
a--2--2--/10--10---------
d--2--2--/10--10----12b--

(flange and delay)
                     x7
e-----|-----------------
b-----|-----------------
g-----|-----------------
d-----|-----------------
a-----|---5-------------
d--2--|--------2~~------

(delay off)

               x8                x7
e-----------------|-----------------|-----------------
b-----------------|-----------------|-----------------
g-----------------|-----------------|-----------------
d-----------------|-----------------|-----------------
a-----------------|--5--------------|--5b-------------
d--x--2-2---2-2---|------2-2--2-2---|-----------------
      pm - - -|

e--------------------------------------------------------------
b--0--------0-------0--------------0-------0------------0------
g--0--------0-------0--------------0-------0------------0------
d--0---2----0--2----0--2---0--2----0--2----0--2---0--2--0--2---
a------2-------2-------2---0--2-------2-------2---0--2-----2---
d------2-------2-------2---0--2-------2-------2---0--2-----2---

e---------------------------------------------
b-------------------------3-------------------
g-------------------------2-------------------
d--2--2--/10--10----0-----0-----0---x-x--2h3-- x3
a--2--2--/10--10----0-----0-----0---x-x--2h3--
d--2--2--/10--10----0-----0-----0---x-x--2h3--

e------------------------
b------------------------
g------------------------
d--2--2--/10--10---------
a--2--2--/10--10---------
d--2--2--/10--10----12b--

(delay on)

e----------------------------------
b----------------------------------
g----------------------------------
d--7----3-------3/5----------------
a--7----3-------3/5-5-7-77-5b------
d--7----3-------3/5----------------

*light feedback, followed by a pickscrap on the high D string*

*rest for 6 bars*

(flange and delay)

Solo

*random natural harmonics near pickups on E/B/G strings*

e---------------------------------
b---------------------------------
g---------------------------------
d--12-14-12-14-12-14-12-14-12-14-- x6
a---------------------------------
d---------------------------------

*slide hand down fretboard*

*rest 2 bars*

e--x-x--x-x--x--
b--x-x--x-x--x--
g--x-x--x-x--x-- x2
d--x-x--x-x--x--
a--x-x--x-x--x--
d--x-x--x-x--x--

*quick pickscrap on the high D string*

e---------------------------------
b---------------------------------
g---------------------------------
d--12-14-12-14-12-14-12-14-12-14-- x6
a---------------------------------
d---------------------------------

e---------------------------------------------------------------
b---------------------------------------------------------------
g---------------------------------------------------------------
d---14------15-------15-14--15-14--15-14--15-14---15-14-15-14---
a---------------------------------------------------------------
d---------------------------------------------------------------

e---------------------------------
b---------------------------------
g---------------------------------
d--12-14-12-14-12-14-12-14-12-14-- x6
a---------------------------------
d---------------------------------

(flange and delay off)

e-----------------------------------------------------------
b-----------------------------------------------------------
d-----------------------------------------------------------
d--2-2-2-2-2-22--2-2-2-2-2-22--2-2-2-2-2-22--2-2-2-2-2-2-2--
a--2-2-2-2-2-22--2-2-2-2-2-22--2-2-2-2-2-22--2-2-2-2-2-2-2--
d--2-2-2-2-2-22--2-2-2-2-2-22--2-2-2-2-2-22--2-2-2-2-2-2-2--
  pm - - - - - - - - -  - - - - - - - - - -| (natural harm)

                                  x2
e-------------------------------------|----------------------------------------------
b-------------------------------------|------15-15-15--15-15-15-15--15--15-15-15\\---
g-------------------------------------|------14-14-14--14-14-14-14--14--14-14-14\\---
d--14-14--14-14--16--14-14--14-14--0--|--12--12-12-12--12-12-12-12--12--12-12-12\\--- (x2)
a--14-14--14-14--16--14-14--14-14--0--|--12------------------------------------------
d--14-14--14-14--16--14-14--14-14--0--|--12------------------------------------------

e---------------------------------------------
b---------------------------------------------
g---------------------------------------------
d--12---12/14-14---14-14--11--2--2--2--2--2/-- x2
a--10---10/12-12---12-12--9---2--2--2--2--2/--
d--10---10/12-12---12-12--9---2--2--2--2--2/--

e----------------------------------------------
b----------------------------------------------
g----------------------------------------------
d--12---12/14-14---14-14--11---9-----(9)--(9)--
a--10---10/12-12---12-12--9----7-----(7)--(7)--
d--10---10/12-12---12-12--9----7-----(7)--(7)--

(light picking with flange)

e----------------------------------------------
b--------------------------------------0---0---
g--------------------------------------0---0---
d--12---12/14-14---14-14--11---9-----9---9-----
a--10---10/12-12---12-12--9----7-----7---7-----
d--10---10/12-12---12-12--9----7-----7---7-----

e------------------------------
b------------------------------
g------------------------------
d--12---12/14-14---14-14--11---
a--10---10/12-12---12-12--9----
d--10---10/12-12---12-12--9----

(hard picking, flange off)

e--------------------------------------------------------
b--5----------5----------5------------8--8-8--10-10--7---
g--4----------4----------4------------7--7-7--9--9---6---
d--2--x--x-x--2--x--x-x--2--x-x--x-x--5--5-5-/7--7\--4--- x2
a--2--x--x-x--2--x--x-x--2--x-x--x-x--5--5-5-/7--7\--4---
d--2--x--x-x--2--x--x-x--2--x-x--x-x--5--5-5--7--7---4---

e---------------------------------------------
b-------------------------3-------------------
g-------------------------2-------------------
d--2--2--/10--10----0-----0-----0---x-x--2h3-- x3
a--2--2--/10--10----0-----0-----0---x-x--2h3--
d--2--2--/10--10----0-----0-----0---x-x--2h3--

e------------------------
b------------------------
g------------------------
d--2--2--/10--10---------
a--2--2--/10--10---------
d--2--2--/10--10----12b--

*light feedback*

--------------------------------------------------------------------------------


Important: The song above is NOT stored on the Chordie server. The original song is hosted at www.xguitar.com. Chordie works as a search engine and provides on-the-fly formatting. Chordie does not index songs against artists/composers will. To remove this song please click here.

This song is displayed as text-only. Transposing and tuning is only available for chordpro-songs.

Login - add to songbook

Rating click stars to rate

Layout
Accuracy

SHARE PAGE  




You need to log in to post comments