Chordie logo


Prison Sex   Tool



Tab for Prison Sex
Transcribed by riddley@mho.net (Sammy Rowe)
Added to t.d.n: January 15 1997 

play around w/ loose 6th string then wind up (or trem up if you have a
trem bar)
E-------------------|-----------------------|--------------------|
B-------------------|-----------------------|--------------------|
G-------------------|----------------------.|--------------------|
D--------------0H2--|------------------0H2-.|--2-2-0-0---------0-|
A-------------------|-----------------------|----------2-2-0H2---|
B--0-0-0-0-0-0------|--0-0-0-0-0-0-0-0------|--------------------|

  Fig 1          4x
E------------------|
B------------------|
G-----------------.|
D---------2-------.|
A--5------0---0H2--|
B----3B-0---0------|
 Fig 2             8x
E---------------------|
B---------------------|
G--------------------.|
D--------------------.|
A------------0H2-2-2--|
B--3-0-0-5-0----------|
  Fig 3            4x
E--------------------|
B--------------------|
G-------------------.|
D-------------------.|
A----5---12\---------|
B--3---0-10\-0-3-0-0-|

play fig 2 eight times.

play fig 3 three times.
E-------------|----------------------------|----------------------------|
B-------------|----------------------------|----------------------------|
G-------------|----------------------------|---------------------------.|
D-------------|----------------------------|---------------------------.|
A----5---12-2-|----12---5---7---7---5---14-|----12---5---7---7---5---2--|
B--3---0-10\0-|--0-10-0-3-0-5-0-5-0-3-0-12-|--0-10-0-3-0-5-0-5-0-3-0-0--|
  Fig 4                              4x
E--------------------------------------|
B--------------------------------------|
G-------------------------------------.|
D-------------------------------------.|
A--------7-7-7-5-5-5-10-10-10-7-7-5-5--|
B--0-0-0-5-5-5-3-3-3-8--8--8--5-5-3-3--|

play Fig 1 three times

E-----------------------|
B-----------------------|
G-----------------------|
D---------2-2-0-2-0-----|
A--5------0---------2-0-|
B----3B-0---------------|

play Fig 2 eight times replace the fifth time w/

E-------------------------|
B-------------------------|
G-------------------------|
D-------------------------|
A-----------------0H2-2-2-|
B--3-0-0-0-0-0-5-0--------|

play fig 3 three times.
E-------------|----------------------------|----------------------------|
B-------------|----------------------------|----------------------------|
G-------------|----------------------------|---------------------------.|
D-------------|----------------------------|---------------------------.|
A----5---12-2-|----12---5---7---7---5---14-|----12---5---7---7---5---2--|
B--3---0-10\0-|--0-10-0-3-0-5-0-5-0-3-0-12-|--0-10-0-3-0-5-0-5-0-3-0-0--|

play Fig 4 four times.
                      3x
E-----------------------|--------------------|
B-----------------------|--------------------|
G------------------0H2-.|--2-2-0-0---------0-|
D--------------0H2-----.|----------2-2-0H2---|
A-----------------------|--------------------|
B--0-0-0-0-0-0----------|--------------------|

Play Fig 1 four times.

E--------7---------------------------------------------
B------7---7-------------------------------------4/11--
G----9-------9-7---7-----------------------------4/11--
D--9-------------7---7H9-----9-----8-----7-------------
A------------------------7H9---7H9---7H9---7H9-2-------
B------------------------------------------------------

Note: another guitar does volume fade-ins on F# (5th string 9th fret)
      durring the hammeron section when the notes on the 4th string
      are played.

E------------------------------------------------------------------
B-------12-12-12-12-12-12-12-12-12------11-11-11-11-11-11-11-11-11-
G--9H11-11-11-11-11-11-11-11-11-11-9H11-11-11-11-11-11-11-11-11-11-
D------------------------------------------------------------------
A------------------------------------------------------------------
B------------------------------------------------------------------

E-----------------------------------------------
B-------10-10-10-10-10-10-10-10-10--------------
G--9H11-11-11-11-11-11-11-11-11-11-9H11---------
D---------------------------------------9B-*9BR-
A-----------------------------------------------
B-----------------------------------------------
                                * is artificial harm.
                                BR is bend and release.

                                                      4x
E---------------------------------|---------------------|
B---------------------------------|---------------------|
G---------------------------------|----------------12\-.|
D----4-2-0---4-2-4-5-4-2-0---4-5--|--------------------.|
A--2-------0---------------2------|----------------10\--|
B---------------------------------|--0-0-0-0-0-0-0------|

E--------------------------------------|
B--3P0-0-5P0-0-3P0-0-10P0-0-12P0-10P0--|
G-------------------------------------.|
D-------------------------------------.|
A--5-----7-----5-----12-----14---12----|
B--3P0-0-5P0-0-3P0-0-10P0-0-12P0-10P0--|

Note: the 2nd string part is played by another guitar, but i put it on the
      same staff for ease of reading.
                         4x
E--#12---------------------|
B--------------------------|
G-------------------------.|
D-------------------------.|
A--5---7---5---12---14-12--|
B--3-0-5-0-3-0-10-0-12-10--|

Note: once again, the trem picking (#12) on the 1st string is another
guitar.

E------------------------------------------------------------------
B--0---------------0---------------0---------------0---------------
G--0---------------0---------------0---------------0---------------
D--4---------------0---------------0---------------0---------------
A--2---------------2---------------2---------------2---------------
B--0-0-0-0-0-0-0-0-0-0-0-0-0-0-0-0-0-0-0-0-0-0-0-0-0-0-0-0-0-0-0-0-
     PM============  PM===========   PM===========   PM============

E--------------|
B----0---0-0-0-|
G---0----0-0-0-|
D4---4-4-4-4-|
A--2---2-2-2-2-|
B------0---0-0-|
Sam Rowe
http://www.mho.net/riddley

--

 



Important: The song above is NOT stored on the Chordie server. The original song is hosted at www.xguitar.com. Chordie works as a search engine and provides on-the-fly formatting. Chordie does not index songs against artists/composers will. To remove this song please click here.

This song is displayed as text-only. Transposing and tuning is only available for chordpro-songs.

Login - add to songbook

Rating click stars to rate

Layout
Accuracy

SHARE PAGE  




You need to log in to post comments