Guitar Tabs, Chords and Lyrics


When I Look to the Sky    Train



-------------------------------------------------------------------------------
			     When I look to the Sky - Train
-------------------------------------------------------------------------------

Tabbed by: Geno
Email: gnogtr@yahoo.com

This is a request, so I did it.  Hope you enjoy!  Train is awesome!!!

Tuning: Standard. Capo on the 5th fret.

Intro (piano): (it’s basically a C chord)

Riff 1
Gtr. 1 (capo 0=0)
e|---------------------------------------------------------------------------|
B|-----------------------0h1---1---------------------------------------------|
G|-------0-------0-------2-----2--2----------0-------0-------0-------0-------|
D|-----0---0---0---0---2----------2--------0---0---0---0---0---0---0---0-----|
A|---3-------2-------0------------0--0-2-3-------2---------------0-----------|
E|---------------------------------------------------------------------------|

Chorus:  Gtr. 1 (doubled)

Riff 2:
G-D-C-Em7-F (repeat)

Verse 2: (Gtr 1. Tacet)

Gtr. 2 (dist electric)             w/slide------------------------------|
e|---------------------------------------------------------------------------|
B|--0------------0-------0-----0---------------------------------------------|
G|--0----------0---0---0---2~~-0---------------------------------------------|
D|--0----0h2-0-----------------0--------5/6/5/8~~---5/6/5/10~~~~~~~~~~~~-----|
A|---------------------------------------------------------------------------|
E|---------------------------------------------------------------------------|

Gtr. 1 Plays Riff 1 now

Gtr. 2(no slide now)
e|---------------------------------------------------------------------------|
B|--------------------------------------------0------------------------------|
G|------0-----0--2-------0-----0---0-------0--0------------------------------|
D|----0-----0----2-----0-----0---0---0---0----0------------------------------|
A|--3-----2------0---3-----2-----------0-------------------------------------|
E|---------------------------------------------------------------------------|

Chorus 2:
Gtr 1. Riff 2

Gtr. 2 Basically picks different parts of the chord (too much to tab.)


Bridge:

Gtr 1 and 2: C-Am-C-F-C-Am-C-F
        Then A-E-D

Then just repeat the chorus and the song ends!

| /  slide up
| \  slide down
| h  hammer-on
| p  pull-off
| ~  vibrato
| +  harmonic
| x  Mute note



Important: The song above is NOT stored on the Chordie server. The original song is hosted at www.xguitar.com. Chordie works as a search engine and provides on-the-fly formatting. Chordie does not index songs against artists/composers will. To remove this song please click here.

This song is displayed as text-only. Transposing and tuning is only available for chordpro-songs.

Login - add to songbook

Rating click stars to rate

Layout
Accuracy

SHARE PAGE  




You need to log in to post comments