Guitar Tabs, Chords and Lyrics


Re-Offender  Travis

e |-------------------------------------------------------------------------|


b |------0---0-3---3-------0--0----0-----0---3---3-------0--0---0-----------|


g |--2/4---------4---4-4\2-------2---2-0---0---0---0-4\2------2---2---------|

d |-------------------------------------------------------------------------|
a |-------------------------------------------------------------------------|
e1|-------------------------------------------------------------------------|
[G]Keeping up with the Jone[Em]ses     play intro riff
[Bm]Fooling my selfish hea[A]rt
[G]Going through the motion[Em]s       /
Em A strum chords
But I'm fooling myself
I'm [Em]fooling myse[A]lf


Chorus:
Cause you [Bm]say you love m[G]e
And then you do it a[Em]gain, you do it a[G]gain
You [Bm]say you're so[G]rry
And then you do it a[Em]gain, you do it a[G]gain


Verse:
Bm A \
Everybody thinks you're well
[G]Everybody thinks I'm il[Em]l        play intro riff and strum (not on the same guitar:)
[Bm]Watching me fall apa[A]rt
[G]Falling under your spe[Em]ll        /
Em A strum chords
But you're fooling yourself
You're [Em]fooling yours[A]elf


Chorus:
Cause you [Bm]say you love m[G]e
And then you do it a[Em]gain, you do it a[G]gain
You [Bm]say you're so[G]rry
And then you do it a[Em]gain, you do it a[G]gain
And again and again and again and again

Solo: play intro riff twice then riff 2 once and then intro riff once.

Riff 2:
e |------------------------------------------0---0--------------------------|
b |------0---0-3---3-------0--0----0-----0---------------0--0---0-----------|
g |--2/4---------4---4-4\2-------2---2-0---0---0---0-4-4------2---2---------|
d |-------------------------------------------------------------------------|
a |-------------------------------------------------------------------------|
e1|-------------------------------------------------------------------------|



Chorus:
But you're [Em]fooling your[A]self
You're [Em]fooling your[A]self
Cause you [Bm]say you love m[G]e
And then you do it a[Em]gain, you do it a[G]gain
You [Bm]say you're so[G]rry
And then you do it a[Em]gain, you do it a[G]gain
Cause you [Bm]say you love m[G]e
And then you do it a[Em]gain, you do it a[G]gain
You [Bm]say you're so[G]rry
And then you do it a[Em]gain, you do it a[G]gain
And again and again and again and again

Important: The song above is NOT stored on the Chordie server. The original song is hosted at www.xguitar.com. Chordie works as a search engine and provides on-the-fly formatting. Chordie does not index songs against artists'/composers' will. To remove this song please click here.

Text color:
Chord color:
Chord grids: 
Font size:    
Page size: 

A Bm Em G
variations - click chord images

Login - add to songbook

Transpose chords

Tuning

Rating click stars to rate

Layout
Accuracy

SHARE PAGE  




You need to log in to post comments