"yes"; ?> A Good Day To Die by Travis - guitar chords, guitar tabs and lyrics - chordie

A Good Day To Die

Travis

 DDBDDDBBG#BBB
 Where is your mother? Where is your father?
 DDBDDDBBG#BBB
 Two little children, locked in a cupboard.
 DDBDDDBBG#BBB
 Into the wide world, high on the high wire,
 DED
 What would you give to fly away, away, away, away, away.
 DDBDDDBBG#BBB
 Girl with the flower, boy with the hammer,
 DDBDDDBBG#BBB
 Lost in a forest, on another planet.
 DDBDDDBBG#BBB
 Find me the exit, find me the way home,
 DED
 find all the love they took away, away, away, away, away.
 ED
'Cause your head, is a brick wall,
 ED
And your heart is a football,
 ED
And your eyes, broken windows,
 ED
when you cry, it's a good day to die.
(solo, verse chords)
E --------------------------------------------------------------------
B ----------------------------1---------3 bu---------3----------------
G -0---0--2---------------2------------------0--2 bu----2 b Hm--0-----
D -----------4---2--2--1---------1---0-----------------------------2--
A --------------------------------------------------------------------
E --------------------------------------------------------------------
E --------------------------------------------------------------------
B --------------------------------15----------------------------------
G -------------------------14 bu-----14 bu--12---14---11--------------
D -0-2--3--4--5--6--7--8------------------------------------14--14----
A --------------------------------------------------------------------
e --------------------------------------------------------------------
E --------------------------------------------------------------------
B ---------13-------------------------------15------------------------
G -----14-----------------14 bu--12--14 bu------14 bu d---12-----12---
D -13-----------13---12---------------------------------------14------
A --------------------------------------------------------------------
E --------------------------------------------------------------------
E ------------15-----------------------------------2------------------
B --15 bu------------15 bu d--12--15--12-----------3------------------
G -------------------------------------------------2------------------
D -------------------------------------------------0------------------
A --------------------------------------------------------------------
E --------------------------------------------------------------------

 ED
And your head, is a brick wall,
 ED
And your heart is a football,
 ED
And your eyes, broken windows,
 ED
when you cry, it's a good day, 
 ED
'Cause your head, is a brick wall,
 ED
And your heart is a football,
 E
And your eyes,
 D
it's a good day to die.
 ED
to die 
 ED
to die 
 ED
to die 
Thanks to: Michael, driftwood@travisfans.zzn.com


B D E G#
variations - click chord images
Transpose chords:
Tuning:
Cool service:
View: Size:
A  A  A
Rating:
Layout:
  • Currently 2.3/5 Stars.
  • 1
  • 2
  • 3
  • 4
  • 5
 
Accuracy:
  • Currently 2.5/5 Stars.
  • 1
  • 2
  • 3
  • 4
  • 5
 
click stars to rate
Chordie recommends:
Check out these online guitar lessons
Songbook:
Login to add this song to your songbook
Support the artist
Preview/buy this song
MSN Music
Why this non-profit ad?

 
login to add comments/video/corrections