Guitar Tabs, Chords and Lyrics


Slide Show  Travis

E -------------------------------------------


B -------------------------------------------


G --0--0--0--0--0--0---2---------------------------


D --0--0--0--0--0--2---0-------------------------------


A --0--2--0--2--0--3---0----------------------------------


E ---------------------2-----------------------------

[G]Is bright oh god I [Em]hope I'm all right[C] Cause I'm g[D]onna cry
Bridge:
[Em]Hold on Hold on[G]
[Em]Slow down slow down[G]
[Em]You're out of touch[G]
out of t[D]ouch
Chorus:
Cause there is no [G]design for [D]life
There's no devils [C]haircut in my [D]mind
There is not a [G]wonderwall to[B7] climb
or [Em]step around[C]
But there is a [G]slide show and its[B7] so slow
[Em]Flashing through my [A]mind
[G]Today was the [D]day but only for the [G]first time
solo
E --------------------------------------------------
B --------------------------------------------------
G --------------------------0--2--4---4 bu----2-----
D ---------------------2--4-------------------------
A -------------------2------------------------------
E --3--2---0---2--3---------------------------------
E --------------------------------------------------------------
B --------------------------------------------------------------
G -----------------0--2--4---4 bu--2--------------0-2-4-4 bu-2--
D ------------2--4----------------------------2-4---------------
A ----------2--------------------------------2------------------
E -0--2--3----------------------------0--2-3--------------------
E -------------------------
B --3----------------------
G --2---0------------------
D --0--------4----0--------
A --------------------0----
E -------------------------

bridge
chorus

Important: The song above is NOT stored on the Chordie server. The original song is hosted at www.xguitar.com. Chordie works as a search engine and provides on-the-fly formatting. Chordie does not index songs against artists'/composers' will. To remove this song please click here.

Text color:
Chord color:
Chord grids: 
Font size:    
Page size: 

A B7 C D Em G
variations - click chord images

Login - add to songbook

Transpose chords

Tuning

Rating click stars to rate

Layout
Accuracy

SHARE PAGE  




You need to log in to post comments