Guitar Tabs, Chords and Lyrics


Ascendancy    Trivium



This has got to be one of the best songs on the album - its amazing. I'm pretty sure this tabs 100% correct

Intro
Gtr. 1
e|------------|------------|
B|------------|------------|
G|------------|-7----7--7--|        x4
D|-6----4--4--|-6----7--7--|
A|-4----4--4--|-5----5--5--|
D|-4----4--4--|------------|

Gtr.2
e|----------------|-----------------|
B|----------------|-----------------|
G|-13--11---9-----|-13--11---14-----|         x4
D|--x---x---x-----|--x---x----x-----|
A|-11---9---7-----|-11---9---12-----|
D|----------------|-----------------|

Verse
e|------------------------------------|
B|------------------------------------|
G|------------------------------------|       x4
D|-----7------7-6------6-----4-----6--|
A|------------------------------------|
D|-4444---4444-----3333---444---666---|
Pm ....   ....     ....   ...   ...

Bridge (x2)
e|------------------|-------------------|
B|------------------|-------------------|
G|---------6---7----|----------7---9----|
D|-7---9------------|-9---11------------|
A|--555-555-555-555-|--777--777-777-777-|
D|------------------|-------------------|
Pm  ... ... ... ...    ...  ... ... ...

Gtr. 1
e|-----------------------|----------------------|
B|-----------------------|----------------------|
G|-7---------------------|-9--------------------|
D|-7---------------------|-9--------------------|
A|-5---------------------|-7--------------------|
D|-----------------------|----------------------|

Gtr.2
e|-----------------------|----------------------|
B|-----------------------|----------------------|
G|-13--11--14-----9\11/9-|-13--14--16-----------|
D|--x---x---x-----x--x-x-|--x---x---x-----------|
A|-11---9--12-----7\-9/7-|-11--12--14-----------|
D|-----------------------|----------------------|

Chorus
Gtr. 1
e|------------|------------|
B|------------|------------|
G|------------|-7----7--7--|        x2
D|-6----4--4--|-6----7--7--|
A|-4----4--4--|-5----5--5--|
D|-4----4--4--|------------|

Gtr.2
e|----------------|-----------------|
B|----------------|-----------------|
G|-13--11---9-----|-13--11---14-----|         x2
D|--x---x---x-----|--x---x----x-----|
A|-11---9---7-----|-11---9---12-----|
D|----------------|-----------------|

Verse
e|------------------------------------|
B|------------------------------------|
G|------------------------------------|       x4
D|-----7------7-6------6-----4-----6--|
A|------------------------------------|
D|-4444---4444-----3333---444---666---|
Pm ....   ....     ....   ...   ...

Bridge (x2)
e|------------------|-------------------|
B|------------------|-------------------|
G|---------6---7----|----------7---9----|
D|-7---9------------|-9---11------------|
A|--555-555-555-555-|--777--777-777-777-|
D|------------------|-------------------|
Pm  ... ... ... ...    ...  ... ... ...

Gtr. 1
e|-----------------------|----------------------|
B|-----------------------|----------------------|
G|-7---------------------|-9--------------------|
D|-7---------------------|-9--------------------|
A|-5---------------------|-7--------------------|
D|-----------------------|----------------------|

Gtr.2
e|-----------------------|----------------------|
B|-----------------------|----------------------|
G|-13--11--14-----9\11/9-|-13--14--16-----------|
D|--x---x---x-----x--x-x-|--x---x---x-----------|
A|-11---9--12-----7\-9/7-|-11--12--14-----------|
D|-----------------------|----------------------|

Chorus
Gtr. 1
e|------------|------------|
B|------------|------------|
G|------------|-7----7--7--|        x4
D|-6----4--4--|-6----7--7--|
A|-4----4--4--|-5----5--5--|
D|-4----4--4--|------------|

Gtr.2
e|----------------|-----------------|
B|----------------|-----------------|
G|-13--11---9-----|-13--11---14-----|         x4
D|--x---x---x-----|--x---x----x-----|
A|-11---9---7-----|-11---9---12-----|
D|----------------|-----------------|

Breakdown
e|--------------------------------------|
B|--------------------------------------|
G|---------------------7--6-------------|
D|-7---6---------------------7--6--6h7--|
A|--------------------------------------|
D|--444-444-444-444-444-44-44-44-44-----|
Pm  ... ... ... ... ... .. .. .. ..

Gtr. 1 (These are just the chords for this part)
e|-----------------------|---------------------|
B|-----------------------|---------------------|
G|-7---------------------|-9-------------------|
D|-7---------------------|-9-------------------|
A|-5---------------------|-7-------------------|
D|-----------------------|---------------------|

Gtr. 2
e|-----------------------|-------------------9-|
B|-----------------------|--------------9h10---|
G|-----------------------|----7-----9----------|
D|--------0h7--7-0h6-6/7-|-0h6-0h6/7-7---------|
A|-----------------------|---------------------|
D|-----------------------|---------------------|

e|-------------|------------------|
B|-------------|------------------|
G|-------------|-7--6-------------|
D|-7---6-------|-------7--6--6h7--|
A|--444-444444-|------------------|
D|--444-444444-|--44-44-44-44-----|
Pm  ... ......    .. .. .. ..

Gtr. 1
e|-----------------------|---------------------|
B|-----------------------|---------------------|
G|-7---------------------|-9-------------------|
D|-7---------------------|-9-------------------|
A|-5---------------------|-7-------------------|
D|-----------------------|---------------------|

Gtr. 2
e|-----------------------|-------------------9-|
B|-----------------------|--------------9h10---|
G|-----------------------|----7-----9----------|
D|--------0h7--7-0h6-6/7-|-0h6-0h6/7-7---------|
A|-----------------------|---------------------|
D|-----------------------|---------------------|

e|-------------|------------------|
B|-------------|------------------|
G|-------------|-7--6-------------|
D|-7---6-------|-------7--6--6h7--|
A|--444-444444-|------------------|
D|--444-444444-|--44-44-44-44-----|
Pm  ... ......    .. .. .. ..

Gtr. 1
e|-----------------------|---------------------|
B|-----------------------|---------------------|
G|-7---------------------|-9-------------------|
D|-7---------------------|-9-------------------|
A|-5---------------------|-7-------------------|
D|-----------------------|---------------------|

Gtr. 2
e|-----------------------|-------------------9-|
B|-----------------------|--------------9h10---|
G|-----------------------|----7-----9----------|
D|--------0h7--7-0h6-6/7-|-0h6-0h6/7-7---------|
A|-----------------------|---------------------|
D|-----------------------|---------------------|

Solo (Okay, it's nowhere near perfect, but it's getting the feel of it that's the most important...)
e|-9p7p5---------------------------------|-----------------------|
B|------9p7p5----------------------------|-----------------------|
G|-----------9p7p6-----------------------|-----------------------|
D|----------------9p7p6------------------|-----------------------|
A|---------------------5h7h9-9h11h12p11--|-9-7-9/12-11--9h11p9-7-|
D|---------------------------------------|-----------------------|

e|-10p9p7--------------------------------|-----14-17-16----------|
B|-------10p9p7--------------------------|-/14-----------14---15-|
G|-------------9p7p6-----6h7h9p7p6-6-----|-----------------------|
D|------------------9p7p6---------9------|-----------------------|
A|---------------------------------------|-----------------------|
D|---------------------------------------|-----------------------|

e|---------------------------------|
B|-15br-14h15p14-------14----------|
G|------------------16----16-14h16-|
D|---------------------------------|
A|---------------------------------|
D|---------------------------------|

e|----------------------------------------------14----|
B|----------------------------------------14-17----17-|
G|-14h16p14\13-13h14p13--13---------14-16-------------|
D|---------------------14-14/16-----------------------|
A|----------------------------------------------------|
D|----------------------------------------------------|

e|-14h17p14--14h1714--14h17p14--14h17p14---|
B|---------17-------17--------17--------17-|
G|-----------------------------------------|
D|-----------------------------------------|
A|-----------------------------------------|
D|-----------------------------------------|

e|-14h16p14--14h17p14--14h17p14--14h17p14---|-14-17-14----14--------|
B|---------17--------17--------17--------17-|----------17----17-17b-|
G|------------------------------------------|-----------------------|
D|------------------------------------------|-----------------------|
A|------------------------------------------|-----------------------|
D|------------------------------------------|-----------------------|

e|---------------|------------------|
B|---------------|-7--5-----7--5----|
G|---------------|-------6-------6--|
D|-4----4-7----7-|-----------77-7-7-|
A|-4----4-7----7-|--55-55-55--------|
D|-4----4-7----7-|------------------|
Pm                  .. .. .. .. . .

e|---------------|-------------------------9-|
B|---------------|---------------------------|
G|---------------|---------------------------|
D|-4----4-7----7-|-0h7-0h6/7-0h6p0-0h7-0h9---|
A|-4----4-7----7-|---------------------------|
D|-4----4-7----7-|---------------------------|

e|---------------|------------------|
B|---------------|-7--5-----7--5----|
G|---------------|-------6-------6--|
D|-4----4-7----7-|-----------77-7-7-|
A|-4----4-7----7-|--55-55-55--------|
D|-4----4-7----7-|------------------|
Pm                  .. .. .. .. . .

e|---------------|-------------------------9-|
B|---------------|---------------------------|
G|---------------|---------------------------|
D|-4----4-7----7-|-0h7-0h6/7-0h6p0-0h7-0h9---|
A|-4----4-7----7-|---------------------------|
D|-4----4-7----7-|---------------------------|

e|------------------------------|------------------|
B|-------2----------------------|-532-32-----------|
G|--------------4------2--------|----4--42421-21-1-|    x4
D|-4-2-4----4-2----4-2----4-2-4-|------------4--4--|
A|------------------------------|------------------|
D|------------------------------|------------------|

Bridge (x2)
e|------------------|-------------------|
B|------------------|-------------------|
G|---------6---7----|----------7---9----|
D|-7---9------------|-9---11------------|
A|--555-555-555-555-|--777--777-777-777-|
D|------------------|-------------------|
Pm  ... ... ... ...    ...  ... ... ...

Gtr. 1
e|-----------------------|----------------------|
B|-----------------------|----------------------|
G|-7---------------------|-9--------------------|
D|-7---------------------|-9--------------------|
A|-5---------------------|-7--------------------|
D|-----------------------|----------------------|

Gtr.2
e|-----------------------|----------------------|
B|-----------------------|----------------------|
G|-13--11--14-----9\11/9-|-13--14--16-----------|
D|--x---x---x-----x--x-x-|--x---x---x-----------|
A|-11---9--12-----7\-9/7-|-11--12--14-----------|
D|-----------------------|----------------------|

Chorus
Gtr. 1
e|------------|------------|
B|------------|------------|
G|------------|-7----7--7--|        x8
D|-6----4--4--|-6----7--7--|
A|-4----4--4--|-5----5--5--|
D|-4----4--4--|------------|

Gtr.2
e|----------------|-----------------|
B|----------------|-----------------|
G|-13--11---9-----|-13--11---14-----|         x8
D|--x---x---x-----|--x---x----x-----|
A|-11---9---7-----|-11---9---12-----|
D|----------------|-----------------|

Ending chord
e|-----|
B|-----|
G|-7---|
D|-6---|
A|-5---|


Important: The song above is NOT stored on the Chordie server. The original song is hosted at www.xguitar.com. Chordie works as a search engine and provides on-the-fly formatting. Chordie does not index songs against artists/composers will. To remove this song please click here.

This song is displayed as text-only. Transposing and tuning is only available for chordpro-songs.

Login - add to songbook

Rating click stars to rate

Layout
Accuracy

SHARE PAGE  




You need to log in to post comments