Guitar Tabs, Chords and Lyrics


Drowned and Torn Asunder    Trivium



Drowned and torn asunder
Trivium
Ascendancy
Tabbed by scott bennett

intro

Gtr I

E|-----------------------------------------------------------------------------------|
B|-----------------------------------------------------------------------------------|
G|--7-7-7-7-9-9-9-9-10-10-10-10-12-12-12-12--10-10-10-9-9-5-5-5---10-10-9-9-5-5-5----|
D|-----------------------------------------------------------------------------------|
A|--5-5-5-5-7-7-7-7--8--8--8--8-10-10-10-10---8--8--8-7-7-3-3-3----8--8-7-7-3-3-3----|
E|-----------------------------------------------------------------------------------|

Gtr II

E|-----------------------------------------------------------------------------------|
B|-----------------------------------------------------------------------------------|
G|-----------------------------------------------------------------------------------|
D|--0-0-0-0-0-0-0-0--0--0--0--0--0--0--0--0---8--8--8-8-8-8-8-8-8--8--8-8-8-8-8-8----|
A|--0-0-0-0-0-0-0-0--0--0--0--0--0--0--0--0---8--8--8-8-8-8-8-8-8--8--8-8-8-8-8-8----|
E|--0-0-0-0-0-0-0-0--0--0--0--0--0--0--0--0---8--8--8-8-8-8-8-8-8--8--8-8-8-8-8-8----|


Gtr I

E|---------------------------------------------------------------------------------------------|
B|---------------------------------------------------------------------------------------------|
G|--10-10-10-10-12-12-12-12-14-14-14-14-15-15-15-15--14-14-14-12-12-9-9-9---14-14-12-12-9-9-9--|
D|---------------------------------------------------------------------------------------------|
A|---8--8--8--8-10-10-10-10-12-12-12-12-13-13-13-13--12-12-12-10-10-7-7-7---12-12-10-10-7-7-7--|
E|---------------------------------------------------------------------------------------------|

Gtr II

E|--------------------------------------------------------------------------------------------|
B|--------------------------------------------------------------------------------------------|
G|--------------------------------------------------------------------------------------------|
D|--0--0--0--0--0--0--0--0--0--0--0--0--0--0--0--0---8--8--8--8--8-8-8-8-8--8--8--8--8-8-8-8--|
A|--0--0--0--0--0--0--0--0--0--0--0--0--0--0--0--0---8--8--8--8--8-8-8-8-8--8--8--8--8-8-8-8--|
E|--0--0--0--0--0--0--0--0--0--0--0--0--0--0--0--0---8--8--8--8--8-8-8-8-8--8--8--8--8-8-8-8--|

Verse

Guitar 	I

E|--------------------------------------------------------------------------------------------------------------------------|
B|--------------------------------------------------------------------------------------------------------------------------|
G|--------------------------------------------------------------------------------------------------------------------------|
D|-----------------------5-3---------------------------------------------------------8-7------------------------------------|
A|---5-------7--------------------5-------7----------------------5-------7-------------------5-------7----------------------|
E|-----0-0-0---0-0-0-1p0-----0-0----0-0-0---0-0-1p0-0-0-1p0-0-0----0-0-0---0-0-0-1P0-----0-0---0-0-0---0-0-1P0-0-0-1P0-0-0--|
       P.M--   ------        ---    -----   ---     ---     ---    -----   -----         ---   -----   ---     ---     ---
Guitar II

E|--------------------------------------------------------------------------------------------------------------------------|
B|--------------------------------------------------------------------------------------------------------------------------|
G|--------------------------------------------------------------------------------------------------------------------------|
D|---7-------9-----------5-3------7-------9----------------------7-------9-----------8-7-----7-------9----------------------|
A|---5-------7--------------------5-------7----------------------5-------7-------------------5-------7----------------------|
E|-----0-0-0---0-0-0-1p0-----0-0----0-0-0---0-0-1p0-0-0-1p0-0-0----0-0-0---0-0-0-1P0-----0-0---0-0-0---0-0-1P0-0-0-1P0-0-0--|
       P.M--   -----         ---    -----   ---     ---     ---    -----   -----         ---   -----   ---     ---     ---
This is repeated through the verse

little pre verse fill

Guitar 1

E|---19-17h19p17--------------------------|
B|---------------18-16-15-----------------|
G|------------------------17-16-----------|
D|------------------------------18--------|
A|----------------------------------------|
E|----------------------------------------|

Guitar II

E|---12-10h12p10--------------------------|
B|---------------11-9-8-------------------|
G|----------------------10-9--------------|
D|---------------------------11-----------|
A|----------------------------------------|
E|----------------------------------------|

End verse riff

Both guitars

E|---------------------------------------------------------------------|
B|---------------------------------------------------------------------|
G|--------------------12---10----9h10----------------------------------|
D|---10-------9-----------------------------------------------3---3h5--|
A|------8-8-8---8-8-8---8-8--8-8------8-------7-----------3h5---5------|
E|--------------------------------------0-0-0---0-0-0-0h3--------------| X2
        P.M--   -----   ---  ---      -------   -----
Pre chorus

Guitar I

E|-------------------------------------------------------------------------------------------------------------------|
B|-------------------------------------------------------------------------------------------------------------------|
G|-------------------------------------------------------------------------------------------------------------------|
D|---12p0--------10p0----8p0----12p0---------------------------12p0--------10p0----8p0----10p0----8----12p0------10--|
A|---------------------------------------------8h10------10h12-------------------------------------------------------|
E|--------000000------00-----00------000000-88------1010------------000000------00-----00------88---88------1010-----| X4
          P.M---      --     --      ------ --      ----            ------      --     --      --   --      ----
Guitar II

E|-------------------------------------------------------------------------------------------------------------------|
B|-------------------------------------------------------------------------------------------------------------------|
G|---10p0---------9p0----7p0----10p0-----------9h10------10h12----------------------------9p0----7p0----10p0----9p0--|
D|-------------------------------------------------------------------------------------------------------------------|
A|-------------------------------------------------------------------------------------------------------------------|
E|--------000000------00-----00------000000-00-------00------------000000------00-----00------00-----00------00------| x 4
          P.M---      --     --      ------ --       --            ------      --     --      --     --      --
Chorus (There is actually 3 guitar parts layerd on the track but i decied to just include the main lead and rythym)

Guitar 1

E|------------------------------------------------------------------------------------------------13--12~--------|
B|--------------------------------------------------------------------------------------------------------13-----|
G|---14------12--------------------14------12--------------------14------12--------------------------------------|
D|-------15------14---14--15--12-------15------14---14--15--12-------15------14--14--15--12----------------------|
A|---------------------------------------------------------------------------------------------------------------|
E|---------------------------------------------------------------------------------------------------------------|

E|---------------------------------------------------------------------------------------------------------------|
B|---------------------------------------------------------------------------------------------------------------|
G|---14------12--------------------14------12--------------------14------12--------------------------------------|
D|-------15------14---14--15--12-------15------14---14--15--12-------15------14--14--15--12---------1------------|
A|--------------------------------------------------------------------------------------------------1------------|
E|--------------------------------------------------------------------------------------------------1------------|

Guitar II

E|---------------------------------------------------------------------------------------------------------------|
B|---------------------------------------------------------------------------------------------------------------|
G|---------------------------------------------------------------------------------------------------------------|
D|---0--------------------0--------10-------------------10--------8------------------8-------------3---1---3-----|
A|---0--------------------0--------10-------------------10--------8------------------8-------------3---1---3-----|
E|---0--------------------0--------10-------------------10--------8------------------8-------------3---1---3-----|

E|---------------------------------------------------------------------------------------------------------------|
B|---------------------------------------------------------------------------------------------------------------|
G|---------------------------------------------------------------------------------------------------------------|
D|---0--------------------0--------10-------------------10--------8------------------8--------------1------------|
A|---0--------------------0--------10-------------------10--------8------------------8--------------1------------|
E|---0--------------------0--------10-------------------10--------8------------------8--------------1------------|

Verse
end verse
pre chorus
chorus

Break

Both guitars

E|----------------------------------------------------------------------------------|
B|----------------------------------------------------------------------------------|
G|----------------------------------------------------------------------------------|
D|---0----------0--0---------8---7---3---0----------0--0----------8---7---3---------|
A|---0----------0--0---------8---7---3---0----------0--0----------8---7---3---------|
E|---0----------0--0---------8---7---3---0----------0--0----------8---7---3---------|
            P.M-----                                ----

Guitar 1

Fast alternate picking

E|---------------------------------------------------------------------------------------------------------------------------------|
B|---------------------------------------------------------------------------------------------------------------------------------|
G|---7p0000003p0000005p0000002p0000007p0000003p0000005p0000002p0000007p0000003p0000005p0000002p00000010p0010p0010p009p009p009p00---|
D|---------------------------------------------------------------------------------------------------------------------------------|
A|---------------------------------------------------------------------------------------------------------------------------------|
E|---------------------------------------------------------------------------------------------------------------------------------|

E|---------------------------------------------------------------------------------------------------------------------------------|
B|---------------------------------------------------------------------------------------------------------------------------------|
G|---7p0000003p0000005p0000002p0000007p0000003p0000005p0000002p0000007p0000003p0000005p0000002p00000010p0-9p0-7p0-9p0-10p0-12p0----|
D|---------------------------------------------------------------------------------------------------------------------------------|
A|---------------------------------------------------------------------------------------------------------------------------------|
E|---------------------------------------------------------------------------------------------------------------------------------|

Guitar II

Fast alternate picking

E|---------------------------------------------------------------------------------------------------------------------------------|
B|---------------------------------------------------------------------------------------------------------------------------------|
G|---------------------------------------------------------------------------------------------------------------------------------|
D|---8p0000005p0000007p0000003p0000008p0000005p0000007p0000003p0000008p0000005p0000007p0000003p0000008p008p008p007p007p007p00------|
A|---------------------------------------------------------------------------------------------------------------------------------|
E|---------------------------------------------------------------------------------------------------------------------------------|

E|---------------------------------------------------------------------------------------------------------------------------------|
B|---------------------------------------------------------------------------------------------------------------------------------|
G|---------------------------------------------------------------------------------------------------------------------------------|
D|---8p0000005p0000007p0000003p0000008p0000005p0000007p0000003p0000008p0000005p0000007p0000003p0000008p0-7p0-5p0-7p0-8p0-10p0------|
A|---------------------------------------------------------------------------------------------------------------------------------|
E|---------------------------------------------------------------------------------------------------------------------------------|

Pre chorus
Chorus

END

Well there it is im working on the solos but they are immensley difficult... i will add when done!



Important: The song above is NOT stored on the Chordie server. The original song is hosted at www.xguitar.com. Chordie works as a search engine and provides on-the-fly formatting. Chordie does not index songs against artists'/composers' will. To remove this song please click here.

This song is displayed as text-only. Transposing and tuning is only available for chordpro-songs.

Login - add to songbook

Rating click stars to rate

Layout
Accuracy

SHARE PAGE  




You need to log in to post comments