Guitar Tabs, Chords and Lyrics


Like Light to the Flies   Trivium

e[-------------]


B[-------------]


G[---7~---9~---]

D[---x----x----]

A[---5~---7~---]

D[-------------]

e[-------------]

B[-------------]

G[-------------]

D[---8~--10~---]

A[---8~--10~---]

D[---8~--10~---]

e[---------------------------------------------------------------------------]

B[---------------------------------------------------------------------------]

G[---------------------------------------------------------------------------]

D[---------------------------------------------------------8~------10~-------]

A[-10--8--7--5--7-8-10--8--7--12--10--8--10--8--7--5--7-8--8~------10~-------]

D[---00-00-00-00-0-0--00-00-00--00--00-----00-00-00-00-0---8~------10~-------]

e[---------------------------------------------------------------------------]

B[---------------------------------------------------------------------------]

G[--------------------------------------------------------10-9-7/-14-12-10---]

D[---------------------------------------------------------x-x-x---x--x--x---]

A[-10--8--7--5--7-8-10--8--7--12--10--8--10--8--7--5--7-8---8-7-5/-12-10--8---]

D[---00-00-00-00-0-----00-00-00-00-00-----00-00-00-00-0----------------------]

[A]                                    [B]                                                                       
e[----------------------------------|-------------------------------]

B[----------------------------------|-------------------------------]
G[----------------------------------|----------------------10--9-7--]
D[-8p0------------------3p0-5p0-7p0-|-8p0-------------------x--x-x--]
A[-8p0--0-0-0-0-0-0-0-0-3p0-5p0-7p0-|-8p0--0-0-0-0-0-0-0-0--8--7-5--]
D[-8p0--0-0-0-0-0-0-0-0-3p0-5p0-7p0-|-8p0--0-0-0-0-0-0-0-0---00-0---]
. . . . . . . . . . . . . . . . .. .

Repeat Verse: Part 2 (A)

Guitar 1: (Verse part 3)
e[-----------------------------------]

B[-----------------------------------]
G[-----------------------------------]
D[-----------------------------------]
A[---------5-----------------7-------]
D[-8p7p5h7---10p8p7-10p7h8h10-10p8---]

Guitar 2: (Verse part 3)
e[-----------------------------------------]

B[-----------------------------------------]
G[-----------------------------------------]
D[-----------------------------------------]
A[----------8-----------------10-----------]
D[--8p0h8h10-10p8p0-10p0h10h12--12p10------]

Repeat Verse (part 2 + 3)

Pre-Chorus: (0:40)
Guitar 2:
e[--------------------------------------------------------------------------------]

B[--------------------------------------------------------------------------------]
G[--------------------------------------------------------------------------------]
D[-----------7-------------------------------------7------------------------------]
A[--8--8--7-----8-5--8--8--7-8-10-8-7hp87--8--8--7-----8-5--8--8--7-8-10-8-7h8p7--]
D[---88-88-88-88-8----88-88-8-8--8-8--------00-00-00-00-0----00-00-0-0--0-0-------]
.. .. .. .. . .. .. . . . . .. .. .. .. . .. .. . . . .
(x4)

Guitar 1: Part 1 (0:49)
e[---------------------------------------------------------------------------------]

B[---------------------------------------------------------------------------------]
G[-----------5------------------------------------5-------777-999-101010-121212---]
D[//7--7--5-----7---7--7--5-7-8-7-5h7-5--7--7--5-----7----xxx-xxx--x-x-x--x-x-x----]
A[----------------8------------------------------------8--555-777--8-8-8-101010---]
D[---88-88-88-88-8---88-88-8-8-8-8--------00-00-00-00-0----------------------------]
.. .. .. .. . .. .. . . . . .. .. .. .. .

Guitar 1: Part 2 (0:58)
e[---------------------------------------------------------------------------------]

B[---------------------------------------------------------------------------------]
G[-3~-3/5-5/7~-7/9-9/10~-2--/10-9-3~-3/5-5/7~-7/9-9/10~--//14-14~-14-14~-14-14~----]
D[-x--x-x-x-x--x-x-x--x--x----x-x-x--x-x-x-x--x-x-x--x------x--x---x--x---x--x-----]
A[-1~-1/3-3/5~-5/7-7/-8~-0--/-8-7-1~-1/3-3/5~-5/7-7/-8~--//12-12~-12-12~-12-12~----]
D[---------------------------------------------------------------------------------]
(x2)

Chorus: (1:17)
Guitar 1 (Very faint in the background)
e[--5----5----1----1----------------------------------]

B[--5----5----1----1----------------------------------]
G[--7----7----3----3----------------------------------]
D[--7----7----3----3--3-3-3-3-3-3-3-3-7-7-7-7-7-7-7-7-]
A[--5-00-5----1-00-1--3-3-3-3-3-3-3-3-7-7-7-7-7-7-7-7-]
D[----00--------00----3-3-3-3-3-3-3-3-7-7-7-7-7-7-7-7-]
.. ..
(x2)

Guitar 2
e[--------------------------------------------]

B[--------------------------------------------]
G[--------------------------------------------]
D[----------10~------8~---------7~------------]
A[---8-7--8-----8-7-----8-7--8----10--8-7-----]
D[--------------------------------------------]
(x4)

Repeat Verse: (1:35)

Repeat Pre-Chorus: (1:54)

Repeat Chorus: (2:31)

Interlude:
Guitar 1 (3:07)
e[-----------------------------------------------]

B[-----------------------------------------------]
G[-----------------------------------------------]
D[------7--------5-------5-8---8-7---10-8-7------]
A[--5-8------4-7--7-4--7-------------------------]
D[-0-0-0-00-0-0-0-----0-0-0--00---8-8------10----]
. . . .. . . . . . . .. . . .
(x6)

Guitar 2 (3:07)
e[---------------------------|-------------------]

B[---------------------------|--(Only 2nd Time)--]
G[---------------------------|-------------------]
D[--0~-----------------------|-8-7---10-8-7------]
A[--0~-----------------------|-------------------]
D[--0~-----------------------|----8-8------------]
. .
(x2)

Guitar 2 Solo (3:21) (May not be perfect)
e[----------------------]

B[----------------------]
G[----------------------]
D[----------------------]
A[----5--7-8-7~~~-------]
D[----------------------]
e[-------------------------------------------10h12h13-12-10-------------------------------]
B[-----------------------------------10h11h13--------------13p11p10---------------10------]
G[----------------7-10-9--7-9h10-9----------------------------------12h14h12p10-12--12-12-]
D[---------5h7p5--------------------------------------------------------------------------]
A[-5--7-8---------------------------------------------------------------------------------]
D[----------------------------------------------------------------------------------------]
. . . . . .
e[--------------------------17--17--17--15-12h13p12p10------------------------------]

B[----------------------------------------------------13p11p10--------------10------]
G[-15-15-15-15-15-14-14~~-14--14--14--14----------------------12h14h12p10-12--12-12-]
D[----------------------------------------------------------------------------------]
A[----------------------------------------------------------------------------------]
D[----------------------------------------------------------------------------------]
e[-------------------------------------------------------------------------]
B[-------------------------------------------------------------------------]
G[---------------------------------12-14-15-14-15-17-15p14h15-12-14-15-14~-]
D[-12h13p12-10-12--14h15p14-12-14------------------------------------------]
A[-------------------------------------------------------------------------]
D[-------------------------------------------------------------------------]
e[-17p15p13------13-17-13--15p13p12------12-15-12--18p17p15------15-18-15-]
B[---------15--15------------------14--14------------------17--17---------]
G[-----------14----------------------15----------------------18-----------]
D[------------------------------------------------------------------------]
A[------------------------------------------------------------------------]
D[------------------------------------------------------------------------]
e[-20-18-17--18-17-----17-------------------22~~-]
B[---------20-----20-18--20-18-17-20-18-17-------]
G[----------------------------------------19-----]
D[-----------------------------------------------]
A[-----------------------------------------------]
D[-----------------------------------------------]

(Guitar 1 Comes In)
Guitar 1: (3:48) Slow classical part
e[-------13-13--------12-12--------10-10--------12-]

B[----15-15-15-----13-13-13-----11-11-10-----13-13-]
G[-14----14-14--12----12-12--10----10-10--12----12-]
D[-------------------------------------------------]
A[-------------------------------------------------]
D[-------------------------------------------------]
(x2)

e[------------------------------15-15---22-22-18-18-20-20-]

B[---15-17-18-17h18p17-15-17-18---------------------------]
G[-14-----------------------------------------------------]
D[--------------------------------------------------------]
A[--------------------------------------------------------]
D[--------------------------------------------------------]
e[-----------------------------------15-15--17-17-18-18-20-20-22-22-]
B[-15~-----15-17-18-17h18p17-15-17-18-------------------------------]
G[-------14---------------------------------------------------------]
D[------------------------------------------------------------------]
A[------------------------------------------------------------------]
D[------------------------------------------------------------------]

Guitar 1 Solo: (4:01) (Again may not be perfect)
Note: Explanation for the bend, the note is played on the 13th fret,
and bent to the 15th. Then STILL holding the bend, u play on the 16th,
fret but sounds like the 18th due to the bend, Lastly, u play the 13th,
fret but STILL bent from the beginning so it rings the 15th...Enjoi
p.s. watch the video :D
Note 2: How I Do It: I bend the 13th with my 1st finger and hit the 16th,
with either my 3rd or 4th finger and play the bent string again on the 13th

*(Real Intro)
e[--------------------------------------------]

B[-----------------------13b(15)-16(18)-(15)~~]
G[---------------------12-----^>Same-Bend>^---]
D[-14-15-14h15p14-12-15-----------------------]
A[--------------------------------------------]
D[--------------------------------------------]
The Way Played In Video..^ ^ ^
*(Easier Intro)
e[------------------------------------------------------13-15-17b(18)r17-15-]

B[-----------------------15-18-15------------------13-15--------------------]
G[---------------------12------------------12-14-15-------------------------]
D[-14-15-14h15p14-12-15------------12-14-15---------------------------------]
A[-------------------------------15-----------------------------------------]
D[--------------------------------------------------------------------------]
e[-17-15h17p15-----------15-17-20--22p20p1715h17--18-17h18p17--17---------------------------------]
B[------------17-15-17-18-------------------------------------18--18-17-15-----13b(15)-16(18)-(15)-]
G[------------------------------------------------------------------------14-17-----^>Same-Bend>^--]
D[-------------------------------------------------------------------------------------------------]
A[-------------------------------------------------------------------------------------------------]
D[-------------------------------------------------------------------------------------------------]
E[------------------------------------10-10-------10-10-------10-10-------10-10-]
B[-13b(15)r13p10-13b(15)r13p10-13b(15)-----13b(15)-----13b(15)-----13b(15)------]
G[------------------------------------------------------------------------------]
D[------------------------------------------------------------------------------]
A[------------------------------------------------------------------------------]
D[------------------------------------------------------------------------------]
e[-12----13----15----17----20p17------17-20p17------18--20p17------17-20----------]
B[-15b17-16b18-18b20-20b22------18--18--------18--18---------18--18-----18--18-20-]
G[--------------------------------19------------19-------------19---------19------]
D[--------------------------------------------------------------------------------]
A[--------------------------------------------------------------------------------]
D[--------------------------------------------------------------------------------]
e[-20p17------17-20p17------17---20b(22)r20-17-22b24~]Matt has a 22 Fret Guitar
B[------18--18--------18--18-------------------------]in the video so its the 22nd
G[--------19------------19---------------------------]fret
D[---------------------------------------------------]
A[---------------------------------------------------]
D[---------------------------------------------------]

Guitar 2: (4:01)
e[-----------------------------------------------------]

B[-----------------------------------------------------]
G[-----------------------------------------------------]
D[--0~~~~~~~~~~~3~~~~~~~~~~~5~~~~~~~~~~~8~~~~~7~~~~~~~~]
A[--0~~~~~~~~~~~3~~~~~~~~~~~5~~~~~~~~~~~8~~~~~7~~~~~~~~]
D[--0~~~~~~~~~~~3~~~~~~~~~~~5~~~~~~~~~~~8~~~~~7~~~~~~~~]
(x2)

e[-----------------------------------------------------]

B[-----------------------------------------------------]
G[-----------------------------------------------------]
D[--0-----------3-----------5-----------8-----7--------]
A[--0-----------3-----------5-----------8-----7--------]
D[--0-00000000--3-33333333--5-55555555--8-888-7-777----]
........ ........ ........ ... ...
(x2)

Guitar 2: (4:24)
e[---------------------------------------------------------------------------]

B[---------------------------------------------------------------------------]
G[--------------------------------------------------------10--9-7/-14-12-10--]
D[-----------------------------7--5------------------------x--x-x---x--x--x--]
A[-10--8--7--5--7-8--10--8--7--------8--10--8--7--5--7-8---8--7-5/-12-10--8--]
D[---00-00-00-00-0-----00-00-00-00-00-----00-00-00-00 0----------------------]
.. .. .. .. . .. .. .. .. .. .. .. .. .. .

Guitar 1: (4:24)
e[---------------------------------------------------------------------------]

B[---------------------------------------------------------------------------]
G[---------------------------------------------------------------------------]
D[--0-----------------0------------------------------------8~------10~-------]
A[--0-----------------0-----------------10--8--7--5--7-8---8~------10~-------]
D[--0-----------------0-------------------00-00-00-00 0----8~------10~-------]
.. .. .. .. .
Guitar 1: (4:34) Pre-Chorus (Part 2)
Guitar 2: (4:34) Pre-Chorus (x2)

Repeat Chorus (4:52)

Outro:
Guitar 1: (5:10) Repeat Chorus (x2)
Guitar 2: (5:10)
e[--------------------------------------------]

B[----------13~-----11~--------10~------------]
G[--10-9-10----10-9----10-9-10----12-10-9-----]
D[--------------------------------------------]
A[--------------------------------------------]
D[--------------------------------------------]
(x4)

Guitar 1: (5:28)
e[-----------------]

B[--3~~~~~~~~~~~~~-]
G[--2~~~~~~~~~~~~~-]
D[--0~~~~~~~~~~~~~-]
A[--0~~~~~~~~~~~~~-]
D[--0~~~~~~~~~~~~~-]

Guitar 2: (5:28)
e[-10~~~~~~~~~~~~~~]
B[--x--------------]

G[--7~~~~~~~~~~~~~-]
D[--0~~~~~~~~~~~~~-]
A[--0~~~~~~~~~~~~~-]
D[--0~~~~~~~~~~~~~-]