Guitar Tabs, Chords and Lyrics


Ember to Inferno    Trivium



Author/Artist: Trvium
Title: Ember To Inferno
Album: Ember To Inferno
----------------
----------------
----------------
----------------
-2-----22----22-
-0-----00----00-


----------------------------------------------------------
----------------------------------------------------------
----------------------------------------------------------
-----------------------------------------------------------
----7---9-----7---9---10---9-----7---9-----12---10---9---10
-00---0---000---0---0----0----00---0---000----0----0---0---


----------------------------------------------------------------------
----------------------------------------------------------------------
----------------------------------------------------------------------
-----10-----12-----10-----12------------------------------------------
-----10-----10-----10-----10-----7---9----7---9----10---9-----9---10--
-8888-8-8888-8-8888-8-8888-8--55---5---55---5---55----5----77---7---777


-------------
-------------
-------------
-------------
-10-10--12-12
--8--8--10-10


-----------------------------------------------------------
----------------------------------------------------------
----------------------------------------------------------
---------5---4---2-2-----------------2--2--5---4----------
--2--2-----7---5-2-2-----9-7-10-9----2--2----7---5--22----22-
--0--0-----------0-0-----------------0--0-----------00----00-


--------------------------------------------
--------------------------------------------
-----------------5---9--11------7---11----12
-2-2---9-10------5---/---/------7----/----/-
-2-2---/--/------3---7---9------5----9----10
-0-0---7--8------3--------------5----------




-------------------------------
------------------------------
-------------------------------
-2-2--5---4--------------------
-2-2----7---5--2--2---22-----22
-0-0-----------0--0---00-----00


------------------------------------------
--------------------------------------------
--------------------------55555555-77777777-
-12-12--1212--1010-9-9----55555555-77777777
--7--7---7-7--7-7--7-7----33333333-55555555
--0--0---0-0--0-0--0-0----33333333-55555555


------------------------------------------------
------------------------------------------------
--------------------------5-555555555-7777777777
-2-2----------22----------5-555555555-7777777777
-2-2--10-9----22--10-9----3-333333333-5555555555
-0-0----------00----------3-333333333-5555555555


-----------|--------------------------------------------|---------------------
-----------|--------------------------------------------|---------------------
-----------|--------------------------------------------|---------------------
-----------|--------------------------------------------|-------------------7-
-10p9p7h9--|------7--------3---2-------7--------3--10-9-|-------7---10p9p7h9--
----------8|-0--7----0h3h5---0----0-/7----0-3h5---------|-0-/-7---0---------8-


----------------------------
----------------------------
----------------------5---7-
-10-12----2---5---7---5---7-
-10-12----2---5---7---3---5-
-8--10----0---3---5---------


----------------------------------------------------
-8p7------------------8p7------------10/121212-101010
-----9999999-7777777-------99999999------------------
-----------------------------------------------------
-----------------------------------------------------
-----------------------------------------------------


-12p10p8-12p10p8--------------------------------------------------
------------------12p10p8-12p10p8---------------------------------
-----------------------------------11p9p7-11p9p7------------------
-------------------------------------------------10p9p7--10p9p7---
----------------------------------------------------------------7


Important: The song above is NOT stored on the Chordie server. The original song is hosted at www.xguitar.com. Chordie works as a search engine and provides on-the-fly formatting. Chordie does not index songs against artists'/composers' will. To remove this song please click here.

This song is displayed as text-only. Transposing and tuning is only available for chordpro-songs.

Login - add to songbook

Rating click stars to rate

Layout
Accuracy

SHARE PAGE  




You need to log in to post comments