Guitar Tabs, Chords and Lyrics


Falling to Grey    Trivium



by:LeperMessiah
trivium
falling to grey
ember to inferno

------------------------------------------------------------------------------
------------------------------------------------------------------------------
-4----------------3------6----------------------------------------------------
-4---5---2---4----3------6----------------------------------------------------
-2---5---2---4----1------4----------------------------------------------------
-2---3---0---2----1------4----------------------------------------------------


------------------------------------------------------------------------------
------------------------------------------------------------------------------
------------------------------------------------------------------------------
------------------------------------------------------------------------------
-9------5---222------5---4p2-----7--------------------------------------------
-7------3---000---22---2-----555---5-7h9p5------------------------------------


------------------------------------------------------------------------------
------------------------------------------------------------------------------
------------------------------------------------------------------------------
------------------------------------------------------------------------------
-5---9---10----9---7----9----7------5---4----7---5---4---5--------------------
-7-7-7--7-7--777-7-7-7-10-10-9---33---3---33---3---3---3----------------------


------------------------------------------------------------------------------
------------------------------------------------------------------------------
------------------------------------------------------------------------------
------------------------------------------------------------------------------
----5---4----7---5---4---5------5---4p2------7--------------------------------
-00---0---00---0---0---0-----22---2------555---5-7h9p5------------------------


------------------------------------------------------------------------------
------------------------------------------------------------------------------
------------------------------------------------------------------------------
------------------------------------------------------------------------------
--9---------9-5--------------5--2-------------5---4p2-----7-------------------
--7---------7-3--------------3--0----------22---2-----555---5-7h9p5----------


------------------------------------------------------------------------------
------------------------------------------------------------------------------
--------------------------------7---9--11-------------------------------------
--------------------------------/---/---/-------------------------------------
--5-------2------5p4----5-------5---7---9-5---------2-------5p4---2--4-5p4----
--7-00000-3-0000-----5--7-00000---0---0---7--000000-3-00000-----5-3--5-----5--







----------------------------|-------------------------------------------------
----------------------------|-------------------------------------------------
----------------------------|-------------------------------------------------
----------------------------|-------------------------------------------------
-2--------4--------9--------|-9-7-9--10-9--7----------------------------------
-0--00000-2--22222-7-7777777|-7-9-10-12-10-9----------------------------------


----------------|------|------------------------------------------------------
----------------|------|------------------------------------------------------
----------------|------|------------------------------------------------------
-2------------9-|------|----------------------------------------------------1-
-2------7-----9-|-9--7-|-2--4--4--5-4-2--4---5--------------------------------
-0------5-----7-|-10-9-|-3--5--6--7-5-3--5---7--------------------------------


------------------------------------------------------------------------------
------------------------------------------------------------------------------
------------------------------------------------------------------------------
-11--12---7----14----911----5----------7--------------------------------------
-9---10---7----12----/-/----/----------/----5p4-5p4---------------------------
-7---x7--x9---x10----7-9----3----------5--------------------------------------
 fast picking verse riff (tremelo picking)

------------------------------------------------------------------------------
------------------------------------------------------------------------------
------------------------------------------------------------------------------
------------------------------------------------------------------------------
----------9-7-----5---4---7-5-4----5---4---7-5-4------------------------------


Important: The song above is NOT stored on the Chordie server. The original song is hosted at www.xguitar.com. Chordie works as a search engine and provides on-the-fly formatting. Chordie does not index songs against artists'/composers' will. To remove this song please click here.

This song is displayed as text-only. Transposing and tuning is only available for chordpro-songs.

Login - add to songbook

Rating click stars to rate

Layout
Accuracy

SHARE PAGE  




You need to log in to post comments