Guitar Tabs, Chords and Lyrics


Requiem    Trivium



doesn't have full solo

Intro Guitar 1:
e|---------------------------------------------------|
B|---------------------------------------------------|
G|---------------------------------------------------|
D|--5---5--4b5r4--5---5--4b5b4---------------5/4/2/0-|
A|--3-3-----------3-3-----------5/7~-------2---------|
E|-------------------------------------0-3-----------|
      .             .
e|-----------------------------------------------------------------|
B|-----------------------------------------------------------------|
G|-----------------------------------------------------------------|
D|--5---5--4b5r4--5---5--4b5b4---------------5555-44444-2222-0000--|
A|--3-3-----------3-3-----------5/7~-------2-----------------------|
E|-------------------------------------0-3-------------------------|
PM    .             .

Intro Guitar 2:
e|------------|------------|--------------------|
B|------------|------------|--------------------|
G|------------|------------|--------------------|
D|-5--5-------|-5--5-------|5555-4444-2222-0000-|
A|-3--3-----2-|-3--3-----2-|--------------------|
E|----------0-|----------0-|--------------------|

e|-----------------------------------------------------------------|
B|-----------------------------------------------------------------|
G|-----------------------------------------------------------------|
D|--5---5--4b5r4--5---5--4b5b4---------------5555-44444-2222-0000--|
A|--3-3-----------3-3-----------5/7~-------2-----------------------|
E|-------------------------------------0-3-------------------------|
      .             .

Verse Both Guitars:
e|----------------------|
B|----------------------|
G|----------------------|
D|-555555555/7----------|
A|-333333333/5-22222222-|
E|-------------00000000-|
PM . .. . .    . .. . .

PreChorus Both Guitars:
e|-----------------------------------------------|
B|-----------------------------------------------|
G|-----------------------------------------------|
D|-----------------9--7-9------------------------|
A|-5-2-------------10-9-10--5-2------------------|
E|-3p0-00000000000----------3p0-00000000000-02h3-|


e|-------------------------------------------|
B|-------------------------------------------|
G|-------------------------------------------|
D|-5---5---4---7---5---4--9---9---10---------|
A|---33--33--33--33--33-----77--77---77-10-9-|
E|-------------------------------------------|

e|----------|-------------------|
B|----------|-------------------|
G|----------|-------------------|
D|-5----7---|-5----7-9----------|
A|-3----5-2-|-3----5-7-9-----10-|
E|--------0-|------------0000---|
PM                       ....

Chorus Both Guitars:
e|----0---------------------------------------------|
B|----0---------------------------------------------|
G|----------0--0--0--0------------------------------|
D|--------4---4--4--4--4---5-5---4---7---5----------|
A|-2------5---5--5--5--5---3---33--33--33---5--5--5-|
E|-0----------------------------------------3--2--3-|
PM                             ..  ..  ..

Bridge Guitar 1:
e|--------------------|
B|--------------------|
G|--------------------|
D|-------------5----7-|
A|-2-----333---3----5-|
E|-0-----000----------|

Bridge Guitar 2:
e|-------------------------------------------------------------|
B|-------------------------------------------------------------|
G|-------------------------------------------------------------|
D|-------------------------------------------------------------|
A|----10----9----10----9---7-----10----9----12---10---9---9h10-|
E|-00----00---00----00--0-----00----00---00----0----0---0------|
PM ..    ..   ..    ..  .     ..    ..   ..     .    .   .

e|----------------------------------------------|
B|----------------------------------------------|
G|----------------------------------------------|
D|----------------------------55555555-77777777-|
A|----10----9----10----9---7--33333333-55555555-|
E|-00----00---00----00--0-----------------------|
PM ..    ..   ..    ..  .

Bridge Both Guitars:
e|-------------------------------------------------------------|
B|-------------------------------------------------------------|
G|-------------------------------------------------------------|
D|-------------------------------------------------------------|
A|----10----9----10----9---7-----10----9----12---10---9---9h10-|
E|-00----00---00----00--0-----00----00---00----0----0---0------|
PM ..    ..   ..    ..  .     ..    ..   ..     .    .   .

e|----------------------------------------------|
B|----------------------------------------------|
G|----------------------------------------------|
D|----------------------------55555555-77777777-|
A|----10----9----10----9---7--33333333-55555555-|
E|-00----00---00----00--0-----------------------|
PM ..    ..   ..    ..  .

Bridge Harmony Guitar 1:
e|-------------------------------------------------------------|
B|-------------------------------------------------------------|
G|-------------------------------------------------------------|
D|----9-----7----9-----7---5-----9-----7----10---9----7---7h9--|
A|-------------------------------------------------------------|
E|-00----00---00----00--0-----00----00---00----0----0---0------|
PM ..    ..   ..    ..  .     ..    ..   ..     .    .   .

e|-----------------------------------------------|
B|-----------------------------------------------|
G|----------------------------99999999-111111111-|
D|----9-----7----9-----7---5--xxxxxxxx-xxxxxxxx--|
A|----------------------------77777777-99999999--|
E|-00----00---00----00--0------------------------|
PM ..    ..   ..    ..  .

Backing Solo Guitar 2:
e|-------------|----------------|------------|---|
B|-------------|----------------|------------|---|
G|-------------|----------------|------------|---|
D|-------5---7-|----------5-7---|-------5-7--|---|
A|-2-----3---5-|-2--2222--3-5---|-2-----3-5--|-2-|
E|-0-----------|-0--0000--------|-0----------|-0-|

Post Solo Both Guitars:
e|---------------|---------------|-------------------|
B|---------------|---------------|-------------------|
G|---------------|---------------|-------------------|
D|---------------|---------------|-------------------|
A|-2~~--5~~--7~~-|-2~~--5~~--7~~-|-222222222222222-2-|
E|-0~~--3~~--5~~-|-0~~--3~~--5~~-|-000000000000000-0-|
PM                                 ...............

Trem Picking Both Guitars:
e|-------------------------------|
B|-------------------------------|
G|-------------------------------|
D|-------------10-9----5-4---7-5-|
A|---7-9-10----------------------|
E|-0---------8-------3-----5-----|

Trem Picking Guitar 1:
e|-------------------------------|
B|-------------------------------|
G|-------------------------------|
D|-------------10-9----5-4---7-5-|
A|---7-9-10----------------------|
E|-0---------8-------3-----5-----|

Trem Picking Harmony Guitar 2:
e|-------------------------------|
B|-------------------------------|
G|-------------9-7-----4-2---5-4-|
D|---5-7-9-----------------------|
A|-------------------------------|
E|-0---------8-------3-----5-----|

Solo Harmony "A" Guitar 1:
e|-19-17-15-17-15-14-15-14------------|
B|-------------------------15-17b(19)-|
G|------------------------------------|
D|------------------------------------|
A|------------------------------------|
E|------------------------------------|

Solo Harmony "A" Guitar 2:
e|------------------------------------|
B|-20-19-17-19-17-15-17-15------------|
G|-------------------------16-17b(19)-|
D|------------------------------------|
A|------------------------------------|
E|------------------------------------|


Solo Harmony "B" Guitar 1:
e|----------------------------------------------|
B|----------------------------------------------|
G|-16-16-16-14-14-14-12-12-12-------------------|
D|----------------------------16-16-16h17p16h19-|
A|----------------------------------------------|
E|----------------------------------------------|

e|------------------------------------------|
B|------------------------------------------|
G|-16-16-16-14-14-14-12-12-12-17-17-16------|
D|-------------------------------------14~~-|
A|------------------------------------------|
E|------------------------------------------|

Solo Harmony "B" Guitar 2:
e|----------------------------------------|
B|----------------------------------------|
G|----------------------------------------|
D|-17-17-17-16-16-16-14-14-14-------------|
A|----------------------------17-17-17-19-|
E|----------------------------------------|

e|----------------------------------------|
B|----------------------------------------|
G|----------------------------------------|
D|-17-17-17-16-16-16-14-14-14-------------|
A|----------------------------19-19-19-17-|


Important: The song above is NOT stored on the Chordie server. The original song is hosted at www.xguitar.com. Chordie works as a search engine and provides on-the-fly formatting. Chordie does not index songs against artists'/composers' will. To remove this song please click here.

This song is displayed as text-only. Transposing and tuning is only available for chordpro-songs.

Login - add to songbook

Rating click stars to rate

Layout
Accuracy

SHARE PAGE  




You need to log in to post comments