Guitar Tabs, Chords and Lyrics


To Burn the Eye    Trivium



This song is To Burn The Eye by Trivium, off of Ember to Inferno. I figured all of this out by ear because there are no tabs for it anywhere, so some parts may not be perfect, but i think its pretty close.
   You will have to listen to the song for exact timing and rythm, otherwise some parts would take me forever to tab.

   I will include the time to all parts because it may get confusing.
   ^ - means bend

      0:01
   E-----------------------------------------------------------------------------
   B-----------------------------------------------------------------------------
   G-----------------------------------------------------------------------------
   D---6--6--6--6----6--6--6--6---6--6--6--6--6--6--6--6----6--6--6--6-----------
   A---6--6--6--6----6--6--6--6---6--6--6--6--6--6--6--6----6--6--6--6-----------
   E---4--4--4--4----4--4--4--4---4--4--4--4--4--4--4--4----4--4--4--4----------- repeats








      0:07
   E-----------------------------------------------------------------------------
   B-----------------------------------------------------------------------------
   G---9-9--8-8--6-------12-12--11-11--9----------------------------------------
   D-----------------------------------------------------------------------------
   A---7-7--6-6--4-x2----10-10--9--9---7-x2-------------------------------------
   E-----------------------------------------------------------------------------



   the second time it goes

         0:19
   E-----------------------------------------------------------------------------
   B-----------------------------------------------------------------------------
   G---12-12--11-11-9--6-7-9-----------------------------------------------------
   D-----------------------------------------------------------------------------
   A---10-10---9-9--7--4-5-7-----------------------------------------------------
   E-----------------------------------------------------------------------------



   listen very carefully for timing. its incredibly fast galloping and lots of weird time changes.

         0:35
   A------------------------4------------------------------------------------------------------6------
   E---4-444--6-4--4-7-4--4---7-6---------6-666--7-6-6--7-6-6--9-7-6-------6-666--7-6-6--7-6-6---9-7--






        1:00
   E-----------------------------------------------------------------------------
   B-----------------------------------------------------------------------------
   G----------------------------6-4-6--------8-6-8-------------------------------
   D----6-----8----9--11----2------------4-----------6---------------------------
   A----6-----8----9--11----2---4-2-4----4---6-4-6---6---------------------------
   E----4-----6----7--9-----0------------2-----------4----repeats----------------



        1:50
   E-----------------------------------------------------------------------------
   B-----------------------------------------------------------------------------
   G-----------------------------------------------------------------------------
   D----6-----------------------2----6-4---8-6-------6--6-6--6--6-6--6-----------
   A----6-----6-7-4-6-2-4-0-2---2----6-4---8-6-------6--6-6--6--6-6--6-----------
   E----4-----------------------0----4-2---6-4-------4--4-4--4--4-4--4----4--6--7
                  trem pick





       2:02   \"To burn the eye.....\"
   E------------------------------------------------------------------------------
   B------------------------------------------------------------------------------
   G------------------------------------------------------------------------------
   D---2----4----6----------------------------------------------------------------
   A---2----4----6----------------------------------------------------------------
   E---0----2----4----------------------------------------------------------------





       3:29             3:44
   E------------------------0----------1---------6---------0------------------------
   B--------------------------0----------1---------6---------0----------------------
   G----------------------------0----------1---------6---------0--------------------
   D----5---6---3---2-----2---------3----------8---------2--------------------------
   A----5---6---3---2-----2---------3----------8---------2--------------------------
   E----3---4---1---0-----0---------1----------6---------0----------repeats---------





        3:56                                          4:01           4:20
   E------------------------------------------------------------------------------
   B------------------------------------------------------------------------------
   G------------------------------------------------------------------------------
   D----5--2--3--4---6--2--3--4-----------------------8-8-8-8---------2-2-2-2-----
   A----5--2--3--4---6--2--3--4-----------------------8-8-8-8---------2-2-2-2-----
   E----3--0--1--2---4--0--1--2---repeats and then----6-6-6-6---------0-0-0-0---repeats open E for a while




    heavy breakdown




      4:42
   E------------------------------------------------------------------------------
   B------------------------------------------------------------------------------
   G------------------------------------------------------------------------------
   D---2-2---2-2-2-2-----2-2---2-2-2-2-----2-2---2-2-2-2--0-----------------------
   A---2-2---2-2-2-2--1--2-2---2-2-2-2--1--2-2---2-2-2-2--1-----------------------
   E---0-0---0-0-0-0-----0-0---0-0-0-0-----0-0---0-0-0-0--------repeats then solo i dont know




       6:10
   E-----------------------------------------------------------------------------
   B----14-----12--------14-----12-----------------------------------------------
   G----15^----13--------15^----13---------12--11-------12--11-------------------
   D----------------13---------------13-------------9------------9---------------
   A-----------------------------------------------------------------------------
   E-----------------------------------------------------------------------------






       6:16
   E-----------------------------------------------------------------------------
   B----14-----12--------14-----12-----------------------------------------------
   G----15^----13--------15^----13---------12--11-------6--7--9------------------
   D----------------13---------------13-------------9----------------------------
   A-----------------------------------------------------------------------------
   E-----------------------------------------------------------------------------





Important: The song above is NOT stored on the Chordie server. The original song is hosted at www.xguitar.com. Chordie works as a search engine and provides on-the-fly formatting. Chordie does not index songs against artists'/composers' will. To remove this song please click here.

This song is displayed as text-only. Transposing and tuning is only available for chordpro-songs.

Login - add to songbook

Rating click stars to rate

Layout
Accuracy

SHARE PAGE  




You need to log in to post comments