Guitar Tabs, Chords and Lyrics


Are You Ready    Turbonegro



ARE YOU READY
TURBONEGRO

Written by Turbonegro
From the album: Apocalypse Dudes
Tabbed by: THEO (AKA imMrNutty) on 27th DECEMBER 2001

* * Repeat Once Unless Stated
sl  Slide

   Intro
E||-------------------|
B||-------------------|
G||--5--5-------------|
D||--5--5--2-2--5--7--|
A||--3--3--2-2--5--5--|
E||--------0-0--3--5--|

   Verse Part 1 (Muted)
E||----------------------------------------|
B||*--------------------------------------*|
G||---7-7-7-7--3-3-3-3--5-5-5-5--5-5-5-5---|
D||---7-7-7-7--3-3-3-3--5-5-5-5--5-5-5-5---|
A||*--5-5-5-5--1-1-1-1--3-3-3-3--3-3-3-3--*|
E||----------------------------------------|

   Verse Part 2 (Muted)
E||---------------------------------------------------------|
B||---------------------------------------------------------|
G||--7-7-7-7--3-3-3-3--5-5-5-5--3-3-3-3--7-7-7-7--3-3--7-7--|
D||--7-7-7-7--3-3-3-3--5-5-5-5--3-3-3-3--7-7-7-7--3-3--7-7--|
A||--5-5-5-5--1-1-1-1--3-3-3-3--1-1-1-1--5-5-5-5--1-1--5-5--|
E||---------------------------------------------------------|

   Verse Part 2 (Muted) Continued
E||--------------------|
B||--------------------|
G||--5-5-5-5--5-5-5-5--|
D||--5-5-5-5--5-5-5-5--|
A||--3-3-3-3--3-3-3-3--|
E||--------------------|

Then Play Verse Part 1 x2
and Part 2 again but not muted this time.

   Chorus
E||-----------------------------------|--------------|
B||*----------------sl---------sl----*|--------------|
G||---7-7-7-7--10-10--12--10-10--12---|--9--7--5--7--|
D||---7-7-7-7--10-10--12--10-10--12---|--9--7--5--7--|
A||*--5-5-5-5---8--8--10---8--8--10--*|--7--5--3--5--|
E||-----------------------------------|--------------|

   Chorus Continued
E||-----------------------------------|--------|
B||*----------------sl---------sl----*|--------|
G||---7-7-7-7--10-10--12--10-10--12---|--9--7--|
D||---7-7-7-7--10-10--12--10-10--12---|--9--7--|
A||*--5-5-5-5---8--8--10---8--8--10--*|--7--5--|
E||-----------------------------------|--------|

Then Play Intro

Solo                                            x3
E||-----------------------------------------------|
B||*--11------------------------sl---------sl----*|
G||-------9--11---------9----5-5--7---10-10--12---|
D||--------------9--11-------5-5--7---10-10--12---|
A||*-------------------------3-3--5----8--8--10--*|
E||-----------------------------------------------|

Solo Continued
E||-----------------------|
B||--11-------------------|
G||------9--11---------9--|
D||-------------9--11-----|
A||-----------------------|
E||-----------------------|

Then Play Intro Again
Then Play Verse Part 1 x2
and Part 2 again but not muted this time.

                                       x7
E||--------------------------------------|
B||*------------------------------------*|
G||---7-7-7-7-7-7-7-7--5-5-5-5-5-5-5-5---|
D||---7-7-7-7-7-7-7-7--5-5-5-5-5-5-5-5---|
A||*--5-5-5-5-5-5-5-5--3-3-3-3-3-3-3-3--*|
E||--------------------------------------|
   are you ready, yes im ready



Important: The song above is NOT stored on the Chordie server. The original song is hosted at www.xguitar.com. Chordie works as a search engine and provides on-the-fly formatting. Chordie does not index songs against artists'/composers' will. To remove this song please click here.

This song is displayed as text-only. Transposing and tuning is only available for chordpro-songs.

Login - add to songbook

Rating click stars to rate

Layout
Accuracy

SHARE PAGE  




You need to log in to post comments