Guitar Tabs, Chords and Lyrics


F**k the World (F.T.W.)    Turbonegro



location.href='/index2.php';

Turbonegro - Fuck The World





Intro:
e|----------------------------------|----------------------------------|
B|----------------------------------|---------------------------5-3-0--|
G|----------------------0-----4-2-0-|-------4/5\4--------0-------------|
D|----2---0-2---2-----4-----2-------|---2---------------4-----2--------|
A|------2---------2/5-----3---------|-----2---------2/5-----3----------|
E|-0----------0---------------------|-0--------------------------------|


e|----------------------------------|
B|----------------------------------|
G|-------------------0-----4-2-0----|
D|-----2-4-0-2-----4-----2----------|
A|---2---------2/5-----3------------|
E|-0--------------------------------|


e|--------------------0---0----|
B|--------------------0---0----|
G|-----------------------------|
D|-2-2-2-2-2-2-2-2--2---2------|
A|-2-2-2-2-2-2-2-2--2---2------|
E|-0-0-0-0-0-0-0-0--0---0------|


e|-12-11-12----------------------------------------------------------------------|
B|----------12-13-12-13----10b12-4-3-4-5-4-3-4-5-7-8-7-5-3-5-0-------------------|
G|----------------------12-------------------------------------------------------|
D|-------------------------------------------------------------7-5-4-5-4-2-0-2---|
A|-----------------------------------------------------------------------------2-|
E|-------------------------------------------------------------------------------|

Verse 1:
e|------------------------------------------------------------------------|
B|------------------------------------------------------------------------|
G|------------------------------------------------------------------------|
D|-5--5-5-5-5--5-5-5-5--5-5-5-5--7--9--9-9-9-9--9-9-9--9-----9--9--9----9-|
A|-3--3-3-3-3--3-3-3-3--3-3-3-3--5--7--7-7-7-7--7-7-7--7-----7--7--7----7-|
E|-3--3-3-3-3--3-3-3-3--3-3-3-3--5--7--7-7-7-7--7-7-7--7-----7--7--7----7-|
 |
e|------------------------------------------------------------------------|
B|----------------------------------------------------12-10----10-15b17---|
G|----------------------------------------------------------12------------|
D|------------------------------------------------------------------------|
A|------------------------------------------------------------------------|
E|------------------------------------------------------------------------|


e|---------------------------------------------------|
B|---------------------------------------------------|
G|---------------------------------------------------|
D|-7--5--5-5-5-5--5-5-5-5--5-5-5-5--5--4--4--4--4----|
A|-5--5--5-5-5-5--5-5-5-5--5-5-5-5--5--2--2--2--2----|
E|-5--3--3-3-3-3--3-3-3-3--3-3-3-3--3--2--2--2--2----|

Chorus:
 Do this 4 times
e|---0--2-2-2--0-0-0-0----|
B|---0--3-3-3--1-1-1-1----|
G|------2-2-2--0-0-0-0----|
D|-2----0-0-0--2-2-2-2----|
A|-2----0-0-0--3-3-3-3----|
E|-0----------------------|

--------------------------

e|----------------------|
B|------------------|
G|------------------|
D|-------------------|
A|-------------------|
E|----------------------|

Verse 2:
e|-----------------------------------------------------------------------------------|
B|-----------------------------------------------------------------------------------|
G|-----------------------------------------------------------------------------------|
D|-5--5-5-5-5--5-5-5-5--5-5-5-5--7--9-9-9-9--9-9--9-9----9--9-9--9--------------7----|
A|-3--3-3-3-3--3-3-3-3--3-3-3-3--6--7-7-7-7--7-7--7-7----7--7-7--7--------------6----|
E|-3--3-3-3-3--3-3-3-3--3-3-3-3--6--7-7-7-7--7-7--7-7----7--7-7--7--------------6----|
 |
e|-----------------------------------------------------------------------------------|
B|----------------------------------------------------10---12---10------10-----------|
G|-----------------------------------------------12-----------------12------12-------|
D|-----------------------------------------------------------------------------------|
A|-----------------------------------------------------------------------------------|
E|-----------------------------------------------------------------------------------|


e|----------------------------------------------------------------------------------------------------------|
B|----------------------------------------------------------------------------------------------------------|
G|----------------------------------------------------------------------------------------------------------|
D|-5--5-5-5-5--5-5-5-5--5-5-5-5--7--9-9-9-9--9-9--9--9-----9--9--9--9-------7--5--5-5-5-5--5-5-5-5--5-5-5-5-|
A|-3--3-3-3-3--3-3-3-3--3-3-3-3--6--7-7-7-7--7-7--7--7-----7--7--7--7-------6--3--3-3-3-5--3-3-3-3--3-3-5-3-|
E|-3--3-3-3-3--3-3-3-3--3-3-3-3--6--7-7-7-7--7-7--7--7-----7--7--7--7-------6--3--3-3-3-3--3-3-3-3--3-3-3-3-|
 |
e|-----------------------------------------------12-14-15-14-12h14p12p11-12---------------------------------|
B|----------------------------------------------------------------------------------------------------------|
G|----------------------------------------------------------------------------------------------------------|
D|----------------------------------------------------------------------------------------------------------|
A|----------------------------------------------------------------------------------------------------------|
E|----------------------------------------------------------------------------------------------------------|


e|---------------------------------------------------------------------------------|
B|---------------------------------------------------------------------------------|
G|---------------------------------------------------------------------------------|
D|-7--9-9-9-9--9-9-9-9--9-9-9-9--7--5--5-5-5-5--5-5-5-5--5-5-5-5--5--4--4--4--4----|
A|-6--7-7-7-7--7-7-7-7--7-7-7-7--6--3--3-3-3-3--3-3-3-3--3-3-3-3--3--2--2--2--2----|


Important: The song above is NOT stored on the Chordie server. The original song is hosted at www.xguitar.com. Chordie works as a search engine and provides on-the-fly formatting. Chordie does not index songs against artists'/composers' will. To remove this song please click here.

This song is displayed as text-only. Transposing and tuning is only available for chordpro-songs.

Login - add to songbook

Rating click stars to rate

Layout
Accuracy

SHARE PAGE  




You need to log in to post comments