The Road

Turin Brakes

-------------


 Am
|-------------------------------------------|
|-/10-8--5--3\1-----------------------------|
|-------------------------------------------|
|-----------------------7--5h7--------------|
|------------------6b7---------5h7----------|
|-----------------------------------5p3h5---|

 AmAm6CGDmaj9
|-0-0-0--2--/-3------0--------------------|
|-1-1-1--1--/-1---3--2--------------------|
|-0h2-2--0--/-0---0--2--------------------|
|-0h2-2--0--/-2---0--0--------------------|
|-0-0-0--2--/-3---2-----------------------|
|-----------------3--2--------------------|

Verse- continue strumming as above
------

Chorus
------

A Bm F#m x2
 ABmF#mEF#m

































A Am Am6 Bm C Dmaj9 E F#m G
variations - click chord images
Transpose chords:
Tuning:
Cool service:
View: Size:
A  A  A
Rating:
Layout:
  • Currently 1.5/5 Stars.
  • 1
  • 2
  • 3
  • 4
  • 5
 
Accuracy:
  • Currently 3/5 Stars.
  • 1
  • 2
  • 3
  • 4
  • 5
 
click stars to rate
Chordie recommends:
Get acoustic guitar lessons and electric guitar lessons at JamPlay.com
Songbook:
Login to add this song to your songbook
Support the artist
Preview/buy this song
MSN Music
Why this non-profit ad?

 
login to add comments/video/corrections