Happy Together

Turtles

e------5-4-2-------2-0-2--------

B-------------------------------
G-----------------------------X2
D----4-----------4------------X2
A--4-----------4----------------
E-------------------------------
e-------------------------------------------------------------------------------------------------
B-------------------------------------------------------------------------------------------------
G-------------------------------------------------------------------------------------------------
D--2-2-4-5-4-5--4-5---9-7-5-4-2-4-2-4---2-0-2-4---7-5-4-2-0-2-0-2---0---0-2---0-2-4--2-0-9--------
A---------------------------------------------------------------------3---------------------------
E-------------------------------------------------------------------------------------------------
e-------------------------------------------------------------------------------------------------
B-------------------------------------------------------------------------------------------------
G-------------------------------------------------------------------------------------------------
D--1-2-4-5-4-5--4-2-4-5---9-7-5-4-2-4-2-4---2-0-2-4---7-5-4-2-0-2-0-2---0---0-2---0-2-4--2-0-9----
A-------------------------------------------------------------------------3-----------------------
E-------------------------------------------------------------------------------------------------
e--0--------------------------------0-------------------------------------------------------------
B----0-----------2-3-2-0----0-2-3-----0----------2-3-2-0----0-2-3---------------------------------
G------1-------2----------1-------------1-------2---------1---------------------------------------
D--------2-0-4----------------------------2-0-4---------------------------------------------------
A-------------------------------------------------------------------------------------------------
E-------------------------------------------------------------------------------------------------
e-------------------------------------------------------------------------------------------------
B-------------------------------------------------------------------------------------------------
G-------------------------------------------------------------------------------------------------
D--5-4-5--4-2-4-5---9-7-5-4-2-4-2-4---2-0-2-4---7-5-4-2-0-2-0-2---0---0-2---0-2-4--2-0-9----------
A-------------------------------------------------------------------3-----------------------------
E-------------------------------------------------------------------------------------------------
e--0--------------------------------0-------------------------------------------------------------
B----0-----------2-3-2-0----0-2-3-----0----------2-3-2-0----0-2-3---------------------------------
G------1-------2----------1-------------1-------2---------1---------------------------------------
D--------2-0-4----------------------------2-0-4---------------------------------------------------
A-------------------------------------------------------------------------------------------------
E-------------------------------------------------------------------------------------------------
e-------------------------------------------------------------------------------------------------
B-------------------------------------------------------------------------------------------------
G-------------------------------------------------------------------------------------------------
D--5-4-5--4-2-4-5---9-7-5-4-2-4-2-4---2-0-2-4---7-5-4-2-0-2-0-2---0---0-2---0-2-4--2-0-9----------
A-------------------------------------------------------------------3-----------------------------
E-------------------------------------------------------------------------------------------------
e-----------------------------
B-----------------------------
G---------------------------X6
D--0-2-4--2-0-9-------------X6
A-----------------------------
E-----------------------------
-----|-----5---4-2-----|-----2-----2-----|
-----|-----------------|---------5-------|
-----|-----------------|-----------------|
-----|-4---------------|-4---------------|
---4-|---------------4-|---------------4-|
-----|-----------------|-----------------|
<--------------- 2X ---------------->

 F#m
        Imagine me ...
 E
        I think about you ...
 D
        To think about the ...
 C#
        So happy ...

Verse 2:

If I should call you up, ....

Chorus:

 F#C#mF#
        I can't see me lovin' ...         
 A
        For all .... 
 F#C#mF#
        When you're with me, baby the ....          
 A
        For all my ....

Verse 3:

Me and you and you ....

 repeat cborus

 repeat verse 3; barmonize on first tbree lines

 note tbat final cbord is different from cborus
Vocal interlude :

 F#C#mF#A
	Ba-ba-ba-ba  ba-ba-ba-...

 F#C#mF#C#m
        Ba-ba-ba-ba  ba-ba-....                      

 repeat verse 3

Coda:

 F#mC#F#m
           So happy ...         
 C#F#m
        How is ...            
 C#F#m
        So happy ....         
 strings enter
                    C#       F#m   
We're happy....
 C#F#m
        So happy ...          
 borns enter
                    C#       F#m   
Happy ....
 C#F#m
        So happy ....         
 C#F#
        So happy together (.... 


A C# C#m D E F# F#m
variations - click chord images
Transpose chords:
Tuning:
Cool service:
View: Size:
A  A  A
Rating:
Layout:
  • Currently 3.5/5 Stars.
  • 1
  • 2
  • 3
  • 4
  • 5
 
Accuracy:
  • Currently 2.9/5 Stars.
  • 1
  • 2
  • 3
  • 4
  • 5
 
click stars to rate
Chordie recommends:
Check out JamPlay.com for online video guitar lessons
Songbook:
Login to add this song to your songbook
Support the artist
Preview/buy this song
MSN Music
Why this non-profit ad?

 
login to add comments/video/corrections