Guitar Tabs, Chords and Lyrics


Anesthesia    Type O Negative



"Anesthesia"
From LIFE IS KILLING ME
Tab by Raza Mahmood
Tune guitar 2.5 steps below standard
Low to high: B,E,A,D,F#,b

NOTES:  *=pinch harmonic
        v=slight dip with whammy bar
        %= repeat last measure

INTRO:
Bass/vocals/keys only

MAIN, FULL BAND COMES IN:

                                     "Despair"
  fdbk                            (2times)
||----------------------------------------|------------||
||------10----10---(10)--10----10----10---|------------||
||-------7-----7----(7)---7-----7-----7---|------------||
||-------8-----8----(8)---0-----0-----0---|------------||
||--X-------------------------------------|------------||
||-X-/-\----------------------------------|-------/12\-||

VERSE:
"Did one...        'tis better to..."
"Ignorance is...   wish not..."
||--------------------------------------||
||--------------------------------------||
||--------------------------------------||
||-3---3-3---3-3-3-3-3/7-7---7-7-7-7-7\-||
||-1---1-1---1-1-1-1-1/5-5---5-5-5-5-5\-||
||--------------------------------------||

"So many times..."                                    (rpt)
  pm..|            pm.|            pm.|     pm..........|
||------10*-v-(10)------10*-v-(10)------8*-|---------|---||
||---10---------------8---------------6----|---------|---||
||-7----------------7---------------5------|---------|-%-||
||-----------------------------------------|-7-7-7-7-|-%-||
||-----------------------------------------|-5-5-5-5-|---||
||-----------------------------------------|---------|---||

                             "Liar"
                            (2times)
||-----------------------------------|------------||
||-10----10---(10)--10----10----10---|------------||
||--7-----7----(7)---7-----7-----7---|------------||
||--8-----8----(8)---0-----0-----0---|------------||
||-----------------------------------|------------||
||-----------------------------------|-------/12\-||

"Betwixt birth and death..."
"I pity the living..."
||--------------------------------------||
||--------------------------------------||
||--------------------------------------||
||-3---3-3---3-3-3-3-3/7-7---7-7-7-7-7\-||
||-1---1-1---1-1-1-1-1/5-5---5-5-5-5-5\-||
||--------------------------------------||

"Emotionally stunned...                               (rpt)
  pm..|            pm.|            pm.|     pm..........|
||------10*-v-(10)------10*-v-(10)------8*-|---------|---||
||---10---------------8---------------6----|---------|---||
||-7----------------7---------------5------|---------|-%-||
||-----------------------------------------|-7-7-7-7-|-%-||
||-----------------------------------------|-5-5-5-5-|---||
||-----------------------------------------|---------|---||

CHORUS:
                                   "I don't need love"
                                   "I don't need love"
                             +=fullstepbend
||-------------------------15---(15)\-|---------------------------------||
||-------------------------17+--------|---------------------------------||
||------------------------------------|-----------------------------0---||
||-----5-------5-------5--------------|-----5-------5-------5-------0---||
||-----5-------5-------5--------------|-----5-------5-------5-----------||
||-3-3---3-5-5---5-6-6---6----------\-|-3-3---3-5-5---5-6-6---6-8-8---\-||

REPEAT INTRO BASSLINE

REPEAT CHORUS

BRIDGE:
                                     (2times)
||-------------------------------------------------------||
||-------------------------------------------------------||
||-14--14-14---14-14-14--14-14/16--16-16--16-16\12-12-12-||
||-14--14-14---14-14-14--14-14/16--16-16--16-16\12-12-12-||
||-12--12-12---12-12-12--12-12/14--14-14--14-14\10-10-10-||
||-------------------------------------------------------||

"Are 10thousand yrs..."
"When you give an inch..."
 light pm................................|
||----------------------------------------||
||----------------------------------------||
||----------------------------------------||
||-7--7-7--7-7-7-7-77/9--9-9--9\7--7-7--7-||
||-7--7-7--7-7-7-7-77/9--9-9--9\5--5-5--5-||
||-5--5-5--5-5-5-5-55/7--7-7--7\3--3-3--3-||

"Longing for the past..."
"If not being used..."
||----------------------------------------||
||----------------------------------------||
||----------------------------------------||
||-7--7-7--7-7-7-7-77/9--9-9--9\7--7-7--7-||
||-7--7-7--7-7-7-7-77/9--9-9--9\5--5-5--5-||
||-5--5-5--5-5-5-5-55/7--7-7--7\3--3-3--3-||

BREAKDOWN:
  (let ring throughout)
||-----7-------7-------7-------7-------7-------7-------7-------7--||
||-----0-------0-------0-------0-------0-------0-------0-------0--||
||-4-4---4--------------------------------------------------------||
||---------7-7---7-6-6---6-5-5---5-4-4---4------------------------||
||-----------------------------------------7-7---7-5-5---5-7-7----||
||----------------------------------------------------------------||

REPEAT BRIDGE



Important: The song above is NOT stored on the Chordie server. The original song is hosted at www.xguitar.com. Chordie works as a search engine and provides on-the-fly formatting. Chordie does not index songs against artists'/composers' will. To remove this song please click here.

This song is displayed as text-only. Transposing and tuning is only available for chordpro-songs.

Login - add to songbook

Rating click stars to rate

Layout
Accuracy

SHARE PAGE  




You need to log in to post comments