Guitar Tabs, Chords and Lyrics


Are You Afraid    Type O Negative



(tuning D,G,C,F,A,D)

Riff 1:
|-----------------------------------------
|-----------------------------------------
|---4~----------2~---------9~---------7~--
|-----------------------------------------
|---2~----------0~---------7~---------5~--
|-----------------------------------------

Riff 2:
|-----------------------------------------
|-----------------------------------------
|---4~----------2~---------9~-------------
|-----------------------------------------
|---2~----------0~---------7~-------------
|-----------------------------------------
#cutline#

Riff 3:
|--------------------------------------------------------------------
|---7---7---7---7---5---5---5---5---5---5---5---5---3---3----3---5---
|-----4---4---4---4---2---2---2---2---4---4---4---4---2---2----------
|--------------------------------------------------------------------
|--------------------------------------------------------------------
|--------------------------------------------------------------------

Riff 4:
|--------------------------------------------------------------------
|---7---7---7---7---5---5---5---5---5---5---5---5---5---5---5---5----
|-----4---4---4---4---2---2---2---2---4---4---4---4---4---4---4---4--
|--------------------------------------------------------------------
|--------------------------------------------------------------------
|--------------------------------------------------------------------


Lyrics:
Are you afraid, afraid to die
Don't be afraid, afraid to try
Are you afraid to die
Don't be afraid of suicide

Just take that razor blade
And cut your wrist down to the bone
And die laughing

Are you afraid, afraid to die
Don't be afraid, afraid to try
Suicide



Important: The song above is NOT stored on the Chordie server. The original song is hosted at www.xguitar.com. Chordie works as a search engine and provides on-the-fly formatting. Chordie does not index songs against artists'/composers' will. To remove this song please click here.

This song is displayed as text-only. Transposing and tuning is only available for chordpro-songs.

Login - add to songbook

Rating click stars to rate

Layout
Accuracy

SHARE PAGE  




You need to log in to post comments