Chordie logo
content loaded from cache

Wild Honey  U2

------------------------------


-------0--1--3------3--2--1---


-----0------------------------


---0--------------------------


------------------------------


-3----------------------------




----------------------------------------


-12-1210--12-1210--12--12/13--10--10--


----------------------------------------


--9--97----9--97----9---9/10---7---7--


----------------------------------------


----------------------------------------




In the [G]days
When we were swinging form the trees
I was a [C]monkey
Stealing honey from a [G]swarm of bees
I could [G]taste
I could taste you even then
And I would [C]chase you down the [G]wind
CHORUS:
[Em]You can [C]go there if you [G]please
Wild [D]honey
[Em]And if you [C]go then go with [G]me
Wild [D]honey
VERSE 2:
Did I [G]know you
Did I know you even then
Before the [C]clocks kept time
Before the [G]world was made
From the [G]cruel sun
You were [C]shelter
You were my [G]shelter and my shade
CHORUS x2
INTRO
VERSE 3:
I'm still [G]standing
I'm still standing where you left me
Are you still [C]growing wild?
With everything [G]tame around you
I send you [G]flowers
Cut flowers for your hall
I know your [C]garden is full
But is there [G]sweetness at all
[Em]What is [C]soul
[Am]Love me
Give me [C]soul
CHORUS (2x)
INTRO and end on G
CHORDS USED:
G (320003)
C (x32010)
Em (022000)
Am (x02210)

Important: The song above is NOT stored on the Chordie server. The original song is hosted at www.xguitar.com. Chordie works as a search engine and provides on-the-fly formatting. Chordie does not index songs against artists/composers will. To remove this song please click here.

Am C D Em G
variations - click chord images

Transpose chords

Tuning

Rating click stars to rate

Layout
Accuracy

SHARE PAGE  

You need to log in to post comments