Guitar Tabs, Chords and Lyrics


Another Time, Another Place   U2



ANOTHER TIME, ANOTHER PLACE
				    u2

Tune Down 1/2 Step

            Riff A			  	   Riff B (natural harmonics)x4
|----0----|----0----------0---|--------------------|-----12-|---7-|---5-|---7-|
|----0----|------4------3--3--|--------------------|---12---|--7--|--5--|--7--|
|---------|*-------4---0----0-|-------------------*|*12-----|-7---|-5---|-7--*|
|---------|*-4------0-2-------|---0---0-2-5-4-2-0-*|*-------|-----|-----|----*|
|---------|--2----------------|2-4-2-4-------------|--------|-----|-----|-----|
|---------|-------------------|--------------------|--------|-----|-----|-----|
In The Open Space.... I'll Be With You Now....  We Lie On A Cloud...
(n.H.)					  x3
|---------0---------|------------|------------|-------|-----0-----|-------|
|-12----------0-----|------------|------------|-------|-------0---|-------|
|-12----------------|*----2------|-----------*|-------|--2------2-|-------|
|-------------------|*----2------|-----5-----*|---3---|--2--------|---3---|
|-------------------|-----0------|-----5------|---3---|--0--------|---3---|
|-------------------|------------|-----3------|---1---|-----------|---1---|
PLAY RIFF A

PLAY RIFF B
But She...           I'll Be With You Now....   We Lie On A Cloud...
(n.h.)					  x3
|---------0---------|------------|------------|----0---|--------0-----|-------|
|-12----------0-----|------------|------------|------0-|----------0---|-------|
|-12----------------|*-----2-----|-----------*|--------|------2-----2-|-------|
|-------------------|*-----2-----|-----5-----*|--3-----|---2----------|---3---|
|-------------------|------0-----|-----5------|--3-----|-0------------|---3---|
|-------------------|------------|-----3------|--1-----|--------------|---1---|

We Lie....			Another Time, Another Place
							x4
|---7--7---|---7--7---|---5---|-------------0-------------|
|---7--7---|---8--8---|---6---|-------------0-------------|
|*---------|---9--9---|---5---|-------------0------------*|
|*---------|----------|-------|-------------2------------*|
|----------|----------|-------|-------------2-------------|
|----------|----------|-------|-------------0-------------|

Solo

|---2-0-(2)-|-----------------|-----------|---------------|-----------------|
|-----------|-5-2-5-2/3\2-0/5-|--0-2-3-5--|--3-2-0--3-2-0-|-5-3-2/3\2-0-0/5-|
|*----------|-----------------|----------*|---------------|-----------------|
|*----------|-----------------|----------*|---------------|-----------------|
|-----------|-----------------|-----------|---------------|-----------------|
|-----------|-----------------|-----------|---------------|-----------------|
|-------------|-------------------|------------10-12----|----10----|
|-3-2-0-------|---------------3-5-|-5/7--10-12-------12-|-12----12-|
|-------------|-----------2-4-----|---------------------|----------|
|-------5-4-0-|-----0-2-4---------|---------------------|----------|
|-------------|-2-4---------------|---------------------|----------|
|-------------|-------------------|---------------------|----------|
|---17---|---19--19-----21--21--21--21-|-22-21-19-17-19-|---------------|
|-15--15-|-17--17--17/19--19--19--19---|----------------|-7\3\0--7\3\0--|
|--------|-----------------------------|----------------|---------------|
|--------|-----------------------------|----------------|---------------|
|--------|-----------------------------|----------------|---------------|
|--------|-----------------------------|----------------|---------------|
|----------------|-17-14-19-17-14----14^-|
|-7/8-5-0--8\5\0-|----------------15-----|
|----------------|-----------------------|  After Solo, Go Back Into Chorus
|----------------|-----------------------|  Then End On Riff A And Riff B
|----------------|-----------------------|
|----------------|-----------------------|
				



Important: The song above is NOT stored on the Chordie server. The original song is hosted at www.xguitar.com. Chordie works as a search engine and provides on-the-fly formatting. Chordie does not index songs against artists'/composers' will. To remove this song please click here.

This song is displayed as text-only. Transposing and tuning is only available for chordpro-songs.

Login - add to songbook

Rating click stars to rate

Layout
Accuracy

SHARE PAGE  




You need to log in to post comments