Guitar Tabs, Chords and Lyrics


Miracle Drug   U2



Miracle Drug -- Tabbed by DiscothequeLP (theedgeslespaul@sbcglobal.net)


Standard Tuning




Intro:

e|---------------------------7-----|
b|-----10--------------------------|
g|-7--------9---7/9-----7--------7-|  2x
d|---------------------------------|
a|---------------------------------|
E|---------------------------------|



Verse :

e|---------------------------7-----|
b|-----10--------------------------|
g|-7--------9---(7/9)---7--------7-|  4x
d|---------------------------------|
a|---------------------------------|
E|---------------------------------|

     I wanna trip...



e|----------------------------------|
b|----------------------------------|
g|----------------------------------|
d|----------------------------------|
a|-5--4---0*-------------5--4-------|
E|-------------------------------3*-|
   
    Freedom has...



Chours

e|-10-10-10-10-10-10-10-10--10-10-10-10-10-10-10-10-|
b|-7--7--7--7--7--7--7--7---8--8--8--8--8--8--8--8--|
g|-7--7--7--7--7--7--7--7---7--7--7--7--7--7--7--7--|
d|--------------------------------------------------| 3x
a|--------------------------------------------------|
E|--------------------------------------------------|


The songs are...





Then there's this part before the second verse:


e|-----7------------------------------7------|
b|------------------10-----------------------|
g|-7-----9-----7---------9------7----------7-|  
d|-------------------------------------------|
a|-------------------------------------------|
E|-------------------------------------------|




Second Verse:


e|---------------------------7-----|
b|-----10--------------------------|
g|-7--------9---(7/9)---7--------7-|  3x
d|---------------------------------|
a|---------------------------------|
E|---------------------------------|

    Of science and...



e|----------------------------|
b|--------10------------------|
g|-7h9---------9---7---9---6--|
d|----------------------------|
a|----------------------------|
E|----------------------------|

  Time will dissapear...



e|-------------------------7-----|
b|-------10------------10----10--|
g|-7h9--------9--7-7-------------|
d|-------------------------------|
a|-------------------------------|
E|-------------------------------|

  Love and logic...


e|---------------------------|
b|-------10-----------10-----|
g|-7h9-------9--7-7-------6--|
d|---------------------------|
a|---------------------------|
E|---------------------------|


   Reason is on...


e|------------|
b|------------|
g|------------|
d|------------|
a|-5--4-------|
E|--------3*--|

  Love, oohh...







Then do the chorus, but it's 5x, not 3x




Solo 




This part Edge plays with a slide


e|----------------------------------|
b|----------------------------------|
g|----------------------------------|
d|-7--7/12-----12\11--\--7-----7/9--|
a|----------------------------------|
E|----------------------------------|



e|---------------------------------|
b|---------------------------------|
g|---------------------------------|
d|-11/12-----12/14------12\11---9--|
a|---------------------------------|
E|---------------------------------|



e|-------------------------------------|
b|-12\10--/14--\10-------7\5--/10--\7--|
g|-------------------------------------|
d|-------------------------------------|
a|-------------------------------------|
E|-------------------------------------|


This part is played normally...you might want a Herdim pick to get that 'ching' sound.


         (8x)                       (8x)                  (8x)              (8x)

e|-12-12-12-12-12-12-12-12--12/14-14-14-14-14-14-14--5-5-5-5-5-5-5-5--7-7-7-7-7-7-7-7/--|
b|--------------------------------------------------------------------------------------|

  
         (6x)                        (8x)
  
e|-17-17-17-17-17-17-17--15-15/14-14-14-14-14-14-14---12-12-12-12/14-14-14-14-10-10-10-10--10/7-7-7-7-|
b|----------------------------------------------------------------------------------------------------|





Bridge
     
  
                                                                              (8x)                              
      
e|-10-10-10--10-10-10-10--10-10-10--9--9--9--9--9--9--17-17-17--17-17-17--17-17-17-15-15-15-15-15-15-|
b|-8--8--8---7--7--7--7---5--5--5---5--5--5--5--5--5--15-15-15--14-14-14--12-12-12-12-12-12-12-12-12-|
g|---------------------------------------------------------------------------------------------------|
d|---------------------------------------------------------------------------------------------------| (2x)
a|---------------------------------------------------------------------------------------------------|
E|---------------------------------------------------------------------------------------------------|


 Beneath the noise... 





I can't make out if the last chorus changes, but just play the above chorus tab 8x and it's fine. 



End with:

e|-7--|
b|-7--|
g|-7--|
d|----|
a|----|
E|----|


Important: The song above is NOT stored on the Chordie server. The original song is hosted at www.xguitar.com. Chordie works as a search engine and provides on-the-fly formatting. Chordie does not index songs against artists'/composers' will. To remove this song please click here.

This song is displayed as text-only. Transposing and tuning is only available for chordpro-songs.

Login - add to songbook

Rating click stars to rate

Layout
Accuracy

SHARE PAGE  




You need to log in to post comments