"yes"; ?> Babyface by U2 - guitar chords, guitar tabs and lyrics - chordie

Babyface

U2

1--------------------------------------15--14----------------------

2---15--17--17--15--17--15--15---------------------15--15--17--15--

3------------------------------------------------------------------

4------------------------------------------------------------------

5------------------------------------------------------------------

6------------------------------------------------------------------

1-----------

3-----------

4-----------

5-----------

6-----------

1---------------------

2------------------8--

3---7----7----4----7--

4---7----7----4----5--

5---5----5----2-------

6---------------------

 DDBmG
 Babyface, babyface, slow down child, let me untie your lace
(with this fill):
1--------------------
2--------------------
3--------------------
4---0---2---2---4\---
5--------------------
6--------------------

 DDBmG
 Babyface, babyface, cover girl with natural grace
1-----------------------
2--------10---------10--
3---9----9-----9----9---
4---9----7-----9----7---
5---7----------7--------
6-----------------------

 EmAEmA
How could beauty be so kind to an ordinary guy?
1-----------------
2-----------------
3-----------------
4-----------------
5---0---2---2--0--
6-----------------

Coming home late at night to turn you on
(with delay, let echo repeat):
1----------------
2---12-------15--
3---11-------14--
4---9--------12--
5----------------
6----------------

Checking out every frame, I've got slow motion on my side
Turning around and around with the sound and colour under my control
Going round and around, doing down, dressed up like a lovely day
 DDBmG
 Babyface, babyface, tin foil hair all tied up in lace
Babyface, babyface, bittersweet girl won't you give me a taste
 EmAEmA
How could beauty be so kind to an ordinary guy?
Do do do do...
 DDBmG
 Babyface, babyface, slow down child, let me untie your lace
Babyface, babyface, open that door let me unpack my case
Babyface, babyface, you're everywhere child, you're all over the place
Babyface, babyface, you're coming to me from outerspace
 EmAEmA
How could beauty be so kind to an ordinary guy?
1---------------------3p2-----2--3p2--
2---------------------3-3-----3--3-3--
3---------------------2-2-----2--2-2--
4---0----0--0---------0-0-----0--0-0--
5-------------------------------------
6-------------------------------------

http://www.angelfire.com/va/battersea/index.html
BABYFACE
tabbed by: Sergio Lucero, slucero@cec.uchile.cl
capo on 1st
 CG
Catching your bright blue eyes
 AmF
In the freeze frame
 CG
I've seen them so many times
 AmF
I feel like I must be your best friend
 CGBb
You're looking fine, so fine, oh my,
 F
Dressed up like a lovely day
 CBbAmF
Babyface, Babyface, slow down child, let me untie your lace
 CBbAmF
Babyface, Babyface, cover girl with natural grace
 DmGDmG
How could beauty be so kind to an ordinary guy?
Coming home late at night to turn you on
Checking out every frame I got slow motion on my side
Turning around and around with the sound and colour
Under my control
Round and around, going down, dressed up like a lovely day
Babyface, Babyface tin foil hair all tied up in lace
Babyface, Babyface bitter sweet girl won't you give me a taste
How could beauty be so kind to an ordinary guy?
Do do do... etc.
Babyface, Babyface, slow down child, let me untie your lace
Babyface, Babyface, open that door let me unpack my case
Babyface, Babyface you're everywhere child
You're all over the place
Babyface, Babyface, you're coming to me from outerspace
Hou could beauty be so kind to an ordinary guy?


A Am Bb Bm C D Dm Em F G
variations - click chord images
Transpose chords:
Tuning:
Cool service:
View: Size:
A  A  A
Rating:
Layout:
  • Currently 1.6/5 Stars.
  • 1
  • 2
  • 3
  • 4
  • 5
 
Accuracy:
  • Currently 1.5/5 Stars.
  • 1
  • 2
  • 3
  • 4
  • 5
 
click stars to rate
Chordie recommends:
Check out JamPlay.com for online video guitar lessons
Songbook:
Login to add this song to your songbook
Support the artist
Preview/buy this song
MSN Music
Why this non-profit ad?

 
login to add comments/video/corrections