The First Time

U2

1-----------------------------------------------------

2-----------------------------------------------------

3---1--1--1--1--1--1--1--1----2--2--2--2--2--2--2--2--

4---2--2--2--2--2--2--2--2----2--2--2--2--2--2--2--2--

5---2--2--2--2--2--2--2--2----0--0--0--0--0--0--0--0--

6---0--0--0--0--0--0--0--0----------------------------


 EAEA
 I have a lover, a lover like no other 
 EAEA
She got soul, soul, soul, sweet soul and she teach me how to sing 
 C#mA
 Shows me colours when there's none to see
 C#mAEAE
 Gives me hope when I can't believe that for the first time I feel love
(add this when playing the A chord):
1-----------------
2-----------------
3-----------------
4---9--11--12--11-
5---0--0---0---0--
6-----------------

 EAEA
 I have a brother when I'm a brother in need 
 EAEA
I spend my whole time running, he spends his running after me 
 C#mAC#mA
 When I feel myself going down, I just call and he comes around
 EAE
But for the first time, I feel love
Hoo...
1--------------------------------------
2--------------------------------------
3--------------------------------------
4-----------------------9---11--12--11-
5---9---11--12--11------0---0---0---0--
6---0---0---0---0----------------------

 EAEA
My Father is a rich man, He wears a rich man's cloak 
 EAEA
Gave me the keys to His kingdom coming, gave me a cup of gold 
 EAEA
He said "I have many mansions, and there are many rooms to see." 
 EAEA
But I left by the back door, and I threw away the key  
 EAC#mA
And I threw away the key, yeah I threw away the key 
 C#mA
Yeah I threw away the key 
 EAE
For the first time I feel love
http://www.angelfire.com/va/battersea/index.html
THE FIRST TIME
tabbed by: Sergio Lucero
capo on 1st
Bass line:      D-----4-4-4-4-4-4-4-4-5-5-5-5-5-5-5-5----
                A-----5-5-5-5-5-5-5-5-5-5-5-5-5-5-5-5----
                E----------------------------------------

(chord D) (chord G)
First play the bass line vary softly, then gradually you can
start playing the chords right away.
 DGDG
have a lover, a lover like no other 
 DG
She got soul, soul, soul, sweet soul
 DG
And she teach me how to sing 
 BmG
Shows me colours when there's none to see
 BmG
Gives me hope when I can't believe that
 DGD
For the first time I feel love
I have a brother, when I'm a brother in need
I spend my whole time running
He spends his running after me
When I feel myself goin' down
I just call and he comes around
But for the first time I feel love
My father is a rich man, he wears a rich man's cloak
Gave me the keys to his kingdom (coming)
Gave me a cup of gold
He said "I have many mansions, and there are many rooms to see"
But I left by the back door
And I threw away the key...
For the first time
For the first time
For the first time
I feel love


A Bm C#m D E G
variations - click chord images
Transpose chords:
Tuning:
Cool service:
View: Size:
A  A  A
Rating:
Layout:
  • Currently 2.3/5 Stars.
  • 1
  • 2
  • 3
  • 4
  • 5
 
Accuracy:
  • Currently 1.9/5 Stars.
  • 1
  • 2
  • 3
  • 4
  • 5
 
click stars to rate
Chordie recommends:
Get acoustic guitar lessons and electric guitar lessons at JamPlay.com
Songbook:
Login to add this song to your songbook
Support the artist
Preview/buy this song
MSN Music
Why this non-profit ad?

 
login to add comments/video/corrections