Guitar Tabs, Chords and Lyrics


A Message for Adrienne    Underoath



Underoath - A Message to Adrienne
Tabbed By: doublefisted
Email: powellskater666@hotmail.com

Tuning: Drop D (D A D G B E)

/ = Slide
x = mute strings
* = tremelo

Intro

E|--------------------------------||
B|--------------------------------||
G|--------------------------------||
D|-3-0-5-0-3-0-6-0-3-0-7-0-3-0-8/-||Both
A|-3-0-5-0-3-0-6-0-3-0-7-0-3-0-8/-||
E|-3-0-5-0-3-0-6-0-3-0-7-0-3-0-8/-||

E|--------------------------------||
B|--------------------------------||
G|--------------------------------||
D|-2-0-4-0-2-0-5-0-2-0-6-0-2-0-7/-||Both
A|-2-0-4-0-2-0-5-0-2-0-6-0-2-0-7/-||
D|-2-0-4-0-2-0-5-0-2-0-6-0-2-0-7/-||
PM . . . . . . . . . . . . . .
Fill
E|----------------------------------------------------------------||
B|----------------------------------------------------------------||
G|-5-5-55-5-5-55555-5-5-55-55-55555-4-4-44-44-44444-5-5-55-55-5555||
D|-5-5-55-5-5-55555-5-5-55-55-55555-4-4-44-44-44444-5-5-55-55-5555||
A|-3-3-33-3-3-33333-3-3-33-33-33333-2-2-22-22-22222-3-3-33-33-3333||
D|----------------------------------------------------------------||
Rhythm repeats fill

E|------------------------||
B|------------------------||
G|------------------------||
D|------------------------||Lead
A|-8*-10*-8*-5*-7*-8*-5*--||
D|------------------------||

E|-----------------------|----------|----||
B|-----------------------|----------|----||
G|-----------------------|----------|----||
D|-----------------------|----------|-0x-||Lead
A|-8*-10*-8*-5*-7*-8*-5*-|-55555555-|-0x-||
D|-----------------------|-00000000-|-0x-||

V1
E|-------------------||
B|-65--54--43-----32-||
G|---65--54--54-32---||
D|-------------------||Both
A|-------------------||
D|-------------------||

E|-------------------||
B|-65--54--43--------||
G|---65--54--54-43-2x||
D|-------------------||Lead
A|-------------------||
D|-------------------||

E|-----------------------------------------||
B|-----------------------------------------||
G|-----------------------------------------||
D|-0-000-000-0000000-0-000-000-000000-|-0~-||Rhythm
A|-0-000-000-0000000-0-000-000-000000-|-0~-||
D|-0-000-000-0000000-0-000-000-000000-|-0~-||
PM . ... ... ....... . ... ... ......
V2

E|---------------------------||
B|---------------------------||
G|---------------------------||
D|-33--55--88-8888-888-8888--||Both - Rhythm cont.
A|-33--55--88-8888-888-8888--||
D|-33--55--88-8888-888-8888--||

Ok this next part there are 2 ways to play they sound
EXACTLY the same, play what u want

E|-------|---------||
B|-6-5---|---------||
G|-----5-|---------||
D|-------|-10-9-5--||
A|-------|---------||
D|-------|---------||

V3
E|------------------||
B|------------------||
G|------------------||
D|-0~--|-0-0-0-0-0~-||Rhythm
A|-0~--|-0-0-0-0-0~-||
D|-0~--|-0-0-0-0-0~-||
PM       . . . .

E|---------------------------------------------------||
B|---------------------------------------------------||
G|---------------------------------------------------||
D|-7x7x7x7x7x7x7x7x7x6x6x6x6x6x6x6x6x9x9x9x9x9x9x9x9x||
A|-5x5x5x5x5x5x5x5x5x4x4x4x4x4x4x4x4x7x7x7x7x7x7x7x7x||
D|---------------------------------------------------||

V4

E|----------------------||
B|----------------------||
G|----------------------||
D|-5*---3*----8*-----7*-||Rhythm
A|----------------------||
D|----------------------||

E|------------------------------------------------||
B|------------------------------------------------||
G|------------------------------------------------||
D|-0-000-0-0--------5-555-5-5-5*---3*----8*----7*-||
A|-0-000-0-0-8*--7*-5-555-5-5---------------------||
D|-0-000-0-0--------5-555-5-5---------------------||
PM   ...              ...

E|------||
B|------||
G|------||
D|--0~--||Both
A|--0~--||
D|--0~--||

Outro (working on the clean part sorry :| and putting rhytm part in is
pointless check back in a week after this is posted or so ill have it


Important: The song above is NOT stored on the Chordie server. The original song is hosted at www.xguitar.com. Chordie works as a search engine and provides on-the-fly formatting. Chordie does not index songs against artists'/composers' will. To remove this song please click here.

This song is displayed as text-only. Transposing and tuning is only available for chordpro-songs.

Login - add to songbook

Rating click stars to rate

Layout
Accuracy

SHARE PAGE  




You need to log in to post comments