Guitar Tabs, Chords and Lyrics


Angel Below    Underoath



Underoath - Angel Below
Tabbed By: doublefisted
Email: powellskater666@hotmail.com

Tuning: Drop D (D A D G B E)

/ = slide
* = tremelo
~ = ring out
x = mute string
L.G = Lead Guitar
R.G = Rhythm Guitar

Underoath - Angel Below
Tabbed by: doublefisted (powellskater666@hotmail.com)

Tuning: Drop D (D A D G B E)

/ = slide
* = tremelo
~ = ringout
x = mute string
L.G = Lead
R.G = Rhythm

Intro
Both
E|--------------------------------||
B|--------------------------------||
G|-----------------|strum|--------||
D|-0-0---12/--5-5---888----------||
A|-0-0---12/--5-5---888----------||
D|-0-0---12/--5-5---888----------||
PM . .

When intro ends
E|----------------||
B|-R.G---L.G.-----||
G|----------------||
D|-0~-------------||
A|-0~----7~-------||
D|-0~----0~-------||

Riff A
E|-------------------------------||
B|-------------------------------||
G|-------------------------------||
D|--7-77/-3-33-7-77-3/-55--------||Both Guitars 1st played Strummed
A|--7-77/-3-33-7-77-3/-55--------||Then Played Downpicking
D|--7-77/-3-33-7-77-3/-55--------||

Riff B
E|--------------------------------||
B|--------------------------------||
G|--------------------------------||
D|-777777--555555--33333333-------||Rhythm x4
A|-777777--555555--33333333-------||Lead x2
D|-777777--555555--33333333-------||
PM ...... ...... ........
After lead plays ^ 2x he breaks off and plays this
E|----------------------------------------------------------------||
B|----------------------------------------------------------------||
G|----------------------------------------------------------------||
D|----------------------------------------------------------------||
A|-77777777-55555555-33333333-77777777-1010101010101010-88888-----||
D|----------------------------------------------------------------||
Lead Part cont.
E|------------||
B|------------||
G|------------||
D|-------7x---||
A|-88888-7x---||
D|-------7x---||

After bass part
E|-------------------------||
B|-------------------------||
G|-------------------------||
D|-77x---33x---55x---77x---||
A|-77x---33x---55x---77x---||
D|-77x---33x---55x---77x---||
Play Riff A again

Break down

E|---------------------------------||
B|---------------------------------||
G|---------------------------------||
D|---------------------------------||Lead x12
A|-6-5-----5-4-----3-2-----1-0-----||Rhythm x1
D|-----7-6-----5-4-----4-3-----2-1-||
PM . . . . . . . . . . . . . . . .

E|--------------------------------||
B|--------------------------------||
G|--------------------------------||
D|-0-0-0-0---0-0-0-0---0-0--------||Figure out timing
A|-0-0-0-0---0-0-0-0---0-0--------||
D|-0-0-0-0---0-0-0-0---0-0--------||
PM . . . .   . . . .   . .

E|---------------------------------------------||
B|---------------------------------------------||
G|---------------------------------------------||
D|---------------------------------------------||Lead plays this
A|-13-12-------12-11-------10-9-------8-7------||
D|-------14-13-------12-11------11-10-----9-8--||
PM .  .  .  .  .  .  .  .  .  . .  .  . . . .
Outro Part 1
E|--------------------------------------------------------------||
B|--------------------------------------------------------------||
G|--------------------------------------------------------------||
D|--0---9/10--------------------0---9/11------------------------||Both
A|--0---7/8-----5-----7---8-----0---7/9-------5-----7-----5-----||
D|--0---------0---0-0---0-------0-----------0---0-0---0-0-------||
PM  .         .   . .   .       .           .   . .   . .

E|-------------------------------------------------||
B|-------------------------------------------------||
G|-------------------------------------------------||
D|----------10-8--8888888--12-10--1010101010101010-||
A|-8*-7*-5*-10-8--8888888--12-10--1010101010101010-||
D|----------10-8--8888888--12-10--1010101010101010-||
PM                .......         . . . . . . . .
E|------------||
B|------------||
G|------------||
D|------------||
A|-8*-7*-12*--||
D|------------||

Outro Basicly that you can figure it out, just listen to song before
you play it
E|------------------------------||
B|------------------------------||
G|------------------------------||
D|------------------------0x--0~||
A|-0-0-00-0-0-0-00-0-0-0--0x--0~||
D|-0-0-00-0-0-0-00-0-0-0--0x--0~||
PM . . .. . . . .. . . .  .   .



Important: The song above is NOT stored on the Chordie server. The original song is hosted at www.xguitar.com. Chordie works as a search engine and provides on-the-fly formatting. Chordie does not index songs against artists'/composers' will. To remove this song please click here.

This song is displayed as text-only. Transposing and tuning is only available for chordpro-songs.

Login - add to songbook

Rating click stars to rate

Layout
Accuracy

SHARE PAGE  




You need to log in to post comments