Guitar Tabs, Chords and Lyrics


Short of Daybreak    Underoath



Band: Underoath
Song: Short Of Day Break

Palm mute- ....
Slide- /

I know that two guitars are playing. This is what I could make out.

Intro
E|--------------------------------------------------------------------------|
B|--------------------------------------------------------------------------|
G|--------------------------------------------------------------------------|
D|---0---------0------------11/10-11/10-11/10-11/10-11/10-11/10-11/10-11/10-|
A|---0-5/7-7/9-0-5/7-7/9----9-/8--9-/8--9-/8--9-/8--9-/8--9-/8--9-/8--9-/8--|
E|---0---------0---------10-----------keep-sliding-back-and-forth-----------|

Continued... 2x
E|------------------------------------|
B|------------------------------------|
G|------------------------------------|
D|---10/9-10/9-10/9-10/9--3?3-3-3-3-3-|
A|---8-/7-8-/7-8-/7-8-/7--3-3-3-3-3-3-|
E|--------here-too--------3-3-3-3-3-3-|
. . . . . .
(00:32)
E|--------------------------------------------------|
B|--------------------------------------------------|
G|--------------------------------------------------|
D|---3333-3333-3333-3333-3333-3333-3333-3333---3----|
A|---3333-3333-3333-3333-3333-3333-3333-3333---3-3b-|
E|---3333-3333-3333-3333-3333-3333-3333-3333---3----|
.... .... .... .... .... .... .... ....
Continued...
E|--------------------------------------------------------|
B|--------------------------------------------------------|
G|--------------------------------------------------------|
D|---321321321321321321321321321321321321321321321321321--|
A|---321321321321321321321321321321321321321321321321321--|
E|---321321321321321321321321321321321321321321321321321--|

(00:49)
E|--------------------------------------------------------------|
B|--------------------------------------------------------------|
G|--------------------------------------------------------------|
D|--------------------------------------------------------------| 5x
A|---11-11-11-11-11--9-9-9-9-9-9-9-7-7-7-7-7-7-7-7-7-7-7-7-7-7--|
E|---9--9--9--9--9---7-7-7-7-7-7-7?5-5-5-5-5-5-5-5-5-5-5-5-5-5--|
. . . . . . . . . . . . . .

listen to song for this
(1:29)
Guitar1 Guitar 2
keeps playing over in diff times goes something like this
E|-----------------------------------| E|-----------------------------------|
B|-----------------------------------| B|-----------------------------------|
G|-----------------------------------| G|-----------------------------------|
D|---333-333-333---------------------| D|-3-2-3-5-3-2---then---3-2-3-5-7-3--|2x
A|---333-333-333---------------------| A|-----------------------------------|
E|---333-333-333---------------------| E|-----------------------------------|

(1:53)
E---------------------------------------------------------|
B|--------------------------------------------------------|
G|--------------------------------------------------------|
D|---10-9-7-9-8-7-10-9-7-9-8-7-10-9-7-9-8-7-10-9-7-9-8-7--|
A|--------------------------------------------------------|
E|--------------------------------------------------------|

Continued... these two parts 3x
E---------------------------------------------------------------------------------------|
B|--------------------------------------------------------------------------------------|
G|--------------------------------------------------------------------------------------|
D|-9-9-9-9-9-12-11-10-11-10-9-12-11-10-11-10-9-9-9-9-9-9-12-11-10-11-10-9-12-11-10-11-10|
A|-9-9-9-9-9-----------------------------------9-9-9-9-9--------------------------------|
E|-7-7-7-7-7-----------------------------------7-7-7-7-7--------------------------------|
. . . . . .

Outro (2:21)
E-------------------------------------------------------------|
B|------------------------------------------------------------|
G|------------------------------------------------------------|
D|---10-9-7-9-8-7-10-9-7-9-8-7-10-9-7-9-8-7-10-9-7-9-8-7--12--|
A|--------------------------------------------------------10--|
E|-----------------------------------------------------------



Important: The song above is NOT stored on the Chordie server. The original song is hosted at www.xguitar.com. Chordie works as a search engine and provides on-the-fly formatting. Chordie does not index songs against artists'/composers' will. To remove this song please click here.

This song is displayed as text-only. Transposing and tuning is only available for chordpro-songs.

Login - add to songbook

Rating click stars to rate

Layout
Accuracy

SHARE PAGE  




You need to log in to post comments