Guitar Tabs, Chords and Lyrics


I'm Content With Losing    Underoath



Artist: Underoath
Album: They're Only Chasing Safety
Song: I'm Content with losing

Drop D tuning, listen for strum patterns and counts.



g ----------------------------------------------------
d -9-9-9-9-9-9-9-13-13-13-13-13-13-13-13-11-11-11-11--
a -7-7-7-7-7-7-7-11-11-11-11-11-11-11-11-9--9--9--9---
D -7-7-7-7-7-7-7-11-11-11-11-11-11-11-11-9--9--9--9---

g -----------------------------------------------------
d -9-9-9-9-9-9-9-9-11-11-11-11-11-11-11-11-13-13-13-13-
a -7-7-7-7-7-7-7-7-9--9--9--9--9--9--9--9--11-11-11-11-
D -7-7-7-7-7-7-7-7-9--9--9--9--9--9--9--9--11-11-11-11-

g ----------------------------------------------------
d -13-13-13-13-11-11-11-11-11-11-9-9-9-9-11-11-11-11--
a -11-11-11-11-9--9--9--9--9--9--7-7-7-7-9--9--9--9---
D -11-11-11-11-9--9--9--9--9--9--7-7-7-7-9--9--9--9---

g --------------------------------
d -9-9-9-6-6-6-13-13-13-11-11-11--  x2
a -7-7-7-4-4-4-11-11-11-9--9--9---
D -7-7-7-4-4-4-11-11-11-9--9--9---

g ----------------------------------------------------
d -9-9-9-9-9-9-9-13-13-13-13-13-13-13-13-11-11-11-11--
a -7-7-7-7-7-7-7-11-11-11-11-11-11-11-11-9--9--9--9---
D -7-7-7-7-7-7-7-11-11-11-11-11-11-11-11-9--9--9--9---

g -------------------------------------------------------
d -9-9-9-9-9-9-11-11-11-11-11-11-9-9-9-9-9-9-11-11-11-11-
a -7-7-7-7-7-7-9--9--9--9--9--9--7-7-7-7-7-7-9--9--9--9--
D -7-7-7-7-7-7-9--9--9--9--9--9--7-7-7-7-7-7-9--9--9--9--

g ----------------------------------------------------
d -13-13-13-13-11-11-11-11-11-11-9-9-9-9-11-11-11-11--
a -11-11-11-11-9--9--9--9--9--9--7-7-7-7-9--9--9--9---
D -11-11-11-11-9--9--9--9--9--9--7-7-7-7-9--9--9--9---

g --------------------------------
d -9-9-9-6-6-6-13-13-13-11-11-11--
a -7-7-7-4-4-4-11-11-11-9--9--9---
D -7-7-7-4-4-4-11-11-11-9--9--9---

g
d -------9-------9----------------
a ---7-------7-----7-11-11-11-11--
D -7---7---7---7-----11-11-11-11--

g -------------    --------------------
d -9-9-9-9-9-9- x4 -13-13-13-13-13-13--
a -7-7-7-7-7-7-    -11-11-11-11-11-11--


Important: The song above is NOT stored on the Chordie server. The original song is hosted at www.xguitar.com. Chordie works as a search engine and provides on-the-fly formatting. Chordie does not index songs against artists'/composers' will. To remove this song please click here.

This song is displayed as text-only. Transposing and tuning is only available for chordpro-songs.

Login - add to songbook

Rating click stars to rate

Layout
Accuracy

SHARE PAGE  




You need to log in to post comments