Guitar Tabs, Chords and Lyrics


It's Dangerous Business Walking Out Your Front Door   Underoath

[4/4] Gtr I
E. E. E H E. E. E S E S E E E S E S E S E S E E
|-0--0--0-----------|-0--0---0-------------|---------------------|
|-0--0--0-----------|-0--0---0-------------|---------------------|
|-5--5--4-----------|-5--5--(5)-/9-9-9-9-9-|-9-9-9-9-9-9-9-9-9-9-|
|-7--7--7-----------|-7--7---7---x-x-x-x-x-|-x-x-x-x-x-x-x-x-x-x-|
|-0--0--0-----------|-0--0---0--/7-7-7-7-7-|-7-7-7-7-7-7-7-7-7-7-|
|-------------------|----------------------|---------------------|

|
| Gtr II
| H S E S E E E. E. E S E S E E E S E S E S E S E E
|---------0-0-0-0-0-|-0--0---0-------------|---------------------|
|---------0-0-0-0-0-|-0--0---0-------------|---------------------|
|---------5-5-5-5-5-|-5--5--(5)-/9-9-9-9-9-|-9-9-9-9-9-9-9-9-9-9-|
|---------7-7-7-7-7-|-7--7---7---x-x-x-x-x-|-x-x-x-x-x-x-x-x-x-x-|
|---------0-0-0-0-0-|-0--0---0--/7-7-7-7-7-|-7-7-7-7-7-7-7-7-7-7-|
|-------------------|----------------------|---------------------|



Amadd9 N.C.
Gtrs I, II
E. E. E S E S E E E S E S E S E S E E
|-0--0---0-------------|---------------------|
|-0--0---0-------------|---------------------|
|-5--5--(5)-/9-9-9-9-9-|-9-9-9-9-9-9-9-9-9-9-|
|-7--7---7---x-x-x-x-x-|-x-x-x-x-x-x-x-x-x-x-|
|-0--0---0--/7-7-7-7-7-|-7-7-7-7-7-7-7-7-7-7-|
|----------------------|---------------------|



F5 N.C.
E. E. E S E S E E E S E S E S E S E E
|--------------------|---------------------|
|--------------------|---------------------|
|-5--5--5-/5-5-5-5-5-|-5-5-5-5-5-5-5-5-5-5-|
|-3--3--3--x-x-x-x-x-|-x-x-x-x-x-x-x-x-x-x-|
|-3--3--3-/3-3-3-3-3-|-3-3-3-3-3-3-3-3-3-3-|
|-3--3--3------------|---------------------|



  [D5]E. E. E E. E. E   [G5]E. E. E E. E. E
|-----------------|-----------------||
|-----------------|-----------------||
|-----------------|-----------------||
|-0--0--0-0--0--0-|-5--5--5-5--5--5-||
|-0--0--0-0--0--0-|-5--5--5-5--5--5-||
|-0--0--0-0--0--0-|-5--5--5-5--5--5-||



Verse
  Gtr I             [G5]
Wx7 H S S S S S S S S
|------------|--------------------------------------|
|------------|--------------------------------------|
|------------|------<5>-<5>-<5>-<5>-<5>-<5>-<5>-<5>-|
|------------|------<5>-<5>-<5>-<5>-<5>-<5>-<5>-<5>-|
|------------|--------------------------------------|
|------------|--------------------------------------|

|
| Gtr II
|                    PM-------------------------|

| Wx7 H S S S S S S S S
|------------|--------------------------------------|
|------------|--------------------------------------|
|------------|--------------------------------------|
|------------|--------------------------------------|
|------------|-------5---5---5---5---5---5---5---5--|
|------------|-------5---5---5---5---5---5---5---5--|



  [Amadd9] >                                 <
W +W +H. Q +W
|-^0--------|-(0)--------|-(0)-----------|--------|
|-^0--------|-(0)--------|-(0)-----------|--------|
|-^5--------|-(5)--------|-(5)------[5]--|-(5)----|
|-^7--------|-(7)--------|-(7)-----------|--------|
|-^0--------|-(0)--------|-(0)-----------|--------|
|-----------|------------|---------------|--------|

|
| > <
| W +W +H. Q +W
|-^0--------|-(0)--------|-(0)-----------|--------|
|-^0--------|-(0)--------|-(0)-----------|--------|
|-^5--------|-(5)--------|-(5)------[5]--|-(5)----|
|-^7--------|-(7)--------|-(7)-----------|--------|
|-^0--------|-(0)--------|-(0)-----------|--------|
|-----------|------------|---------------|--------|



<
+W +H.. E +W +W
|---------------|----------------|------------|--------||
|---------------|----------------|------------|--------||
|-(5)-----------|-(5)--------[5]-|-(5)--------|-(5)----||
|---------------|----------------|------------|--------||
|---------------|----------------|------------|--------||
|---------------|----------------|------------|--------||

|
| <
| +H. Q +W W +W
|---------------|----------------|------------|--------||
|---------------|----------------|------------|--------||
|-(5)------[5]--|-(5)------------|-[5]--------|-(5)----||
|---------------|----------------|------------|--------||
|---------------|----------------|------------|--------||
|---------------|----------------|------------|--------||



Bridge
  [Amadd9]Gtr I
  [E]   [E]   [E]   [E]   [E]   [E]   [E]   [E]     [E]   [E]   [E]   [E]   [E]   [E]   [E]   [E]                                              
|-0--0--0--0--0--0--0--0--|-0--0--0--0--0--0--0--0--|
|-0--0--0--0--0--0--0--0--|-0--0--0--0--0--0--0--0--|
|-5--5--5--5--5--5--5--5--|-5--5--5--5--5--5--5--5--|
|-7--7--7--7--7--7--7--7--|-7--7--7--7--7--7--7--7--|
|-0--0--0--0--0--0--0--0--|-0--0--0--0--0--0--0--0--|
|-------------------------|-------------------------|

|
| Gtr II
| > >
| E E E E E E E E E E E E E E E E
|-------------------------|-------------------------|
|-------------------------|-------------------------|
|-2-(2)-2-(2)-2-(2)-2-(2)-|-2-(2)-2-(2)-2-(2)-2-(2)-|
|-------------------------|-------------------------|
|-------------------------|-------------------------|
|-------------------------|-------------------------|



  [E]   [E]    [E]    [E]    [E]    [E]    [E]   [E]     [E]    [E]    [E]    [E]    [E]    [E]    [E]    [E]                                  
|-0--0---0---0---0---0---0--0-|--0---0---0---0---0---0---0---0--|
|-0--0---0---0---0---0---0--0-|--0---0---0---0---0---0---0---0--|
|-5--5---5---5---5---5---5--x-|--x---x---x---x---x---x---x---x--|
|-3--3---3---3---3---3---3--5-|--5---5---5---5---5---5---5---5--|
|-3--3---3---3---3---3---3--5-|--5---5---5---5---5---5---5---5--|
|-3--3---3---3---3---3---3--5-|--5---5---5---5---5---5---5---5--|

|
| > >
| E E E E E E E E E E E E E E E E
|-----------------------------|---------------------------------|
|-----------------------------|---------------------------------|
|-----------------------------|---------------------------------|
|-3-(3)-(3)-(3)-(3)-(3)-(3)-5-|-(5)-(5)-(5)-(5)-(5)-(5)-(5)-(5)-|
|-----------------------------|---------------------------------|
|-----------------------------|---------------------------------|



  [E]  [E]  [E]  [E]  [E]  [E]  [E]  [E]     [E]   [E]  [E]  [E]  [E]  [E]  [E]  [E]                                                           
|-0-0-0-0-0-0-0-0-|--0--0-0-0-0-0-0-0-|
|-0-0-0-0-0-0-0-0-|--0--0-0-0-0-0-0-0-|
|-5-5-5-5-5-5-5-5-|--5--5-5-5-5-5-5-5-|
|-7-7-7-7-7-7-7-7-|--7--7-7-7-7-7-7-7-|
|-0-0-0-0-0-0-0-0-|--0--0-0-0-0-0-0-0-|
|-----------------|-------------------|

|
| <
| W +W
|-----------------|-------------------|
|-----------------|-------------------|
|-2---------------|-(2)---------------|
|-----------------|-------------------|
|-----------------|-------------------|
|-----------------|-------------------|



  [E]   [E]    [E]    [E]    [E]    [E]    [E]    [E]     [E]   [E]    [E]    [E]    [E]    [E]    [E]    [E]                                  
|-0--0---0---0---0---0---0---0--|-0--0---0---0---0---0---0---0--|
|-0--0---0---0---0---0---0---0--|-0--0---0---0---0---0---0---0--|
|-5--5---5---5---5---5---5---5--|-x--x---x---x---x---x---x---x--|
|-3--3---3---3---3---3---3---3--|-5--5---5---5---5---5---5---5--|
|-3--3---3---3---3---3---3---3--|-5--5---5---5---5---5---5---5--|
|-3--3---3---3---3---3---3---3--|-5--5---5---5---5---5---5---5--|

|
| E E E E E E E E E E E E E E E E
|-------------------------------|-------------------------------|
|-------------------------------|-------------------------------|
|-------------------------------|-------------------------------|
|-3-(3)-(3)-(3)-(3)-(3)-(3)-(3)-|-5-(5)-(5)-(5)-(5)-(5)-(5)-(5)-|
|-------------------------------|-------------------------------|
|-------------------------------|-------------------------------|



  [Amadd9]Gtrs I, II                          [Cmaj11/F]                  [Em7/G]
  [E]  [E]  [E]  [E]  [E]  [E]  [E]  [E]    [E]  [E]  [E]  [E]  [E]  [E]  [E]  [E]    [E]  [E]  [E]  [E]  [E]  [E]  [E]  [E]    [E]  [E]  [E]  [E]  [E]  [E]  [E]  [E]                         
|-0-0-0-0-0-0-0-0-|-0-0-0-0-0-0-0-0-|-0-0-0-0-0-0-0-0-|-0-0-0-0-0-0-0-0-|
|-0-0-0-0-0-0-0-0-|-0-0-0-0-0-0-0-0-|-0-0-0-0-0-0-0-0-|-0-0-0-0-0-0-0-0-|
|-5-5-5-5-5-5-5-5-|-5-5-5-5-5-5-5-5-|-5-5-5-5-5-5-5-5-|-x-x-x-x-x-x-x-x-|
|-7-7-7-7-7-7-7-7-|-7-7-7-7-7-7-7-7-|-3-3-3-3-3-3-3-3-|-5-5-5-5-5-5-5-5-|
|-0-0-0-0-0-0-0-0-|-0-0-0-0-0-0-0-0-|-3-3-3-3-3-3-3-3-|-5-5-5-5-5-5-5-5-|
|-----------------|-----------------|-3-3-3-3-3-3-3-3-|-5-5-5-5-5-5-5-5-|

  [Amadd9]Gtr I                               [Cmaj11/F]                  [Em7/G]
  [E]  [E]  [E]  [E]  [E]  [E]  [E]  [E]    [E]  [E]  [E]  [E]  [E]  [E]  [E]  [E]    [E]  [E]  [E]  [E]  [E]  [E]  [E]  [E]     [E]   [E]  [E]  [E]  [E]  [E]  [E]  [E]                       
|-0-0-0-0-0-0-0-0-|-0-0-0-0-0-0-0-0-|-0-0-0-0-0-0-0-0-|--0--0-0-0-0-0-0-0-||
|-0-0-0-0-0-0-0-0-|-0-0-0-0-0-0-0-0-|-0-0-0-0-0-0-0-0-|--0--0-0-0-0-0-0-0-||
|-5-5-5-5-5-5-5-5-|-5-5-5-5-5-5-5-5-|-5-5-5-5-5-5-5-5-|--x--x-x-x-x-x-x-x-||
|-7-7-7-7-7-7-7-7-|-7-7-7-7-7-7-7-7-|-3-3-3-3-3-3-3-3-|--5--5-5-5-5-5-5-5-||
|-0-0-0-0-0-0-0-0-|-0-0-0-0-0-0-0-0-|-3-3-3-3-3-3-3-3-|--5--5-5-5-5-5-5-5-||
|-----------------|-----------------|-3-3-3-3-3-3-3-3-|--5--5-5-5-5-5-5-5-||

|
| Gtr II
| <
| E E E E E E E E E E E E E E E E W +W
|-0-0-0-0-0-0-0-0-|-0-0-0-0-0-0-0-0-|-0---------------|-(0)---------------||
|-0-0-0-0-0-0-0-0-|-0-0-0-0-0-0-0-0-|-0---------------|-(0)---------------||
|-5-5-5-5-5-5-5-5-|-5-5-5-5-5-5-5-5-|-4---------------|-(4)---------------||
|-7-7-7-7-7-7-7-7-|-7-7-7-7-7-7-7-7-|-----------------|-------------------||
|-0-0-0-0-0-0-0-0-|-0-0-0-0-0-0-0-0-|-----------------|-------------------||
|-----------------|-----------------|-----------------|-------------------||



Verse
    [Cmaj7/A]E E E E E E E E   E E E E E E E E   E E E E E E E E   E E E E E E E E   3x
||--0-0-0-0-0-0-0-0-|-0-0-0-0-0-0-0-0-|-0-0-0-0-0-0-0-0-|-0-0-0-0-0-0-0-0---||
||o-0-0-0-0-0-0-0-0-|-0-0-0-0-0-0-0-0-|-0-0-0-0-0-0-0-0-|-0-0-0-0-0-0-0-0--o||
||--5-5-5-5-5-5-5-5-|-5-5-5-5-5-5-5-5-|-5-5-5-5-5-5-5-5-|-5-5-5-5-5-5-5-5---||
||--7-7-7-7-7-7-7-7-|-7-7-7-7-7-7-7-7-|-7-7-7-7-7-7-7-7-|-7-7-7-7-7-7-7-7---||
||o-----------------|-----------------|-----------------|------------------o||
||------------------|-----------------|-----------------|-------------------||

|
| E E E E E E E E E E E E E E E E E E E E E E E E E E E E E E E E 3x
||--0-0-0-0-0-0-0-0-|-0-0-0-0-0-0-0-0-|-0-0-0-0-0-0-0-0-|-0-0-0-0-0-0-0-0---||
||o-0-0-0-0-0-0-0-0-|-0-0-0-0-0-0-0-0-|-0-0-0-0-0-0-0-0-|-0-0-0-0-0-0-0-0--o||
||--5-5-5-5-5-5-5-5-|-5-5-5-5-5-5-5-5-|-5-5-5-5-5-5-5-5-|-5-5-5-5-5-5-5-5---||
||--7-7-7-7-7-7-7-7-|-7-7-7-7-7-7-7-7-|-7-7-7-7-7-7-7-7-|-7-7-7-7-7-7-7-7---||
||o-----------------|-----------------|-----------------|------------------o||
||------------------|-----------------|-----------------|-------------------||



  [Cmaj7/A]E E E E E E E E   E E E E E E E E   E E E E E E E E   E E E E E Q.
|-0-0-0-0-0-0-0-0-|-0-0-0-0-0-0-0-0-|-0-0-0-0-0-0-0-0-|-0-0-0-0-0------||
|-0-0-0-0-0-0-0-0-|-0-0-0-0-0-0-0-0-|-0-0-0-0-0-0-0-0-|-0-0-0-0-0------||
|-5-5-5-5-5-5-5-5-|-5-5-5-5-5-5-5-5-|-5-5-5-5-5-5-5-5-|-5-5-5-5-5------||
|-7-7-7-7-7-7-7-7-|-7-7-7-7-7-7-7-7-|-7-7-7-7-7-7-7-7-|-7-7-7-7-7------||
|-----------------|-----------------|-----------------|----------------||
|-----------------|-----------------|-----------------|----------------||

|
| E E E E E E E E E E E E E E E E E E E E E E E E E E E E E Q.
|-0-0-0-0-0-0-0-0-|-0-0-0-0-0-0-0-0-|-0-0-0-0-0-0-0-0-|-0-0-0-0-0------||
|-0-0-0-0-0-0-0-0-|-0-0-0-0-0-0-0-0-|-0-0-0-0-0-0-0-0-|-0-0-0-0-0------||
|-5-5-5-5-5-5-5-5-|-5-5-5-5-5-5-5-5-|-5-5-5-5-5-5-5-5-|-5-5-5-5-5------||
|-7-7-7-7-7-7-7-7-|-7-7-7-7-7-7-7-7-|-7-7-7-7-7-7-7-7-|-7-7-7-7-7------||
|-----------------|-----------------|-----------------|----------------||
|-----------------|-----------------|-----------------|----------------||



Chorus
    [E]  [E]  [E]  [E]  [E]  [E]  [E]  [E]    [E]  [E]  [E]  [E]  [E]  [E]  [E]  [E]    [E]  [E]  [E]  [E]  [E]  [E]  [E]  [E]    [E]  [E]  [E]  [E]  [E]  [E]  [E]  [E]                       
||--0-0-0-0-0-0-0-0-|-0-0-0-0-0-0-0-0-|-0-0-0-0-0-0-0-0-|-0-0-0-0-0-0-0-0---||
||o-0-0-0-0-0-0-0-0-|-0-0-0-0-0-0-0-0-|-0-0-0-0-0-0-0-0-|-0-0-0-0-0-0-0-0--o||
||--5-5-5-5-5-5-5-5-|-5-5-5-5-5-5-5-5-|-5-5-5-5-5-5-5-5-|-x-x-x-x-x-x-x-x---||
||--7-7-7-7-7-7-7-7-|-7-7-7-7-7-7-7-7-|-3-3-3-3-3-3-3-3-|-5-5-5-5-5-5-5-5---||
||o-0-0-0-0-0-0-0-0-|-0-0-0-0-0-0-0-0-|-3-3-3-3-3-3-3-3-|-5-5-5-5-5-5-5-5--o||
||------------------|-----------------|-3-3-3-3-3-3-3-3-|-5-5-5-5-5-5-5-5---||

|
| E E E E E E E E E E E E E E E E E E E E E E E E E E E E E E E E
||--0-0-0-0-0-0-0-0-|-0-0-0-0-0-0-0-0-|-0-0-0-0-0-0-0-0-|-0-0-0-0-0-0-0-0---||
||o-0-0-0-0-0-0-0-0-|-0-0-0-0-0-0-0-0-|-0-0-0-0-0-0-0-0-|-0-0-0-0-0-0-0-0--o||
||--5-5-5-5-5-5-5-5-|-5-5-5-5-5-5-5-5-|-5-5-5-5-5-5-5-5-|-x-x-x-x-x-x-x-x---||
||--7-7-7-7-7-7-7-7-|-7-7-7-7-7-7-7-7-|-3-3-3-3-3-3-3-3-|-5-5-5-5-5-5-5-5---||
||o-0-0-0-0-0-0-0-0-|-0-0-0-0-0-0-0-0-|-3-3-3-3-3-3-3-3-|-5-5-5-5-5-5-5-5--o||
||------------------|-----------------|-3-3-3-3-3-3-3-3-|-5-5-5-5-5-5-5-5---||



   [E]   [E]   [E]   [E]   [E]   [E]   [E]   [E]     [E]   [E]   [E]   [E]   [E]  [E]  [E]  [E]                                                
|-------------------------|----------------------|
|-10-10-10-10-10-10-10-10-|-10-10-10-10-10-8-8-8-|
|-------------------------|----------------------|
|-------------------------|----------------------|
|-------------------------|----------------------|
|-------------------------|----------------------|

|
| E E E E E E E E E E E E E E E E
|--0--0--0--0--0--0--0--0-|--0--0--0--0--0-0-0-0-|
|--0--0--0--0--0--0--0--0-|--0--0--0--0--0-0-0-0-|
|--5--5--5--5--5--5--5--5-|--5--5--5--5--5-5-5-5-|
|--7--7--7--7--7--7--7--7-|--7--7--7--7--7-7-7-7-|
|--0--0--0--0--0--0--0--0-|--0--0--0--0--0-0-0-0-|
|-------------------------|----------------------|



   [E]   [E]   [E]   [E]   [E]   [E]   [E]   [E]     [E]   [E]   [E]   [E]   [E]  [E]  [E]  [E]                                                
|-------------------------|----------------------|
|-10-10-10-10-10-10-10-10-|-10-10-10-10-10-8-8-8-|
|-------------------------|----------------------|
|-------------------------|----------------------|
|-------------------------|----------------------|
|-------------------------|----------------------|

|
| E E E E E E E E E E E E E E E E
|--0--0--0--0--0--0--0--0-|--0--0--0--0--0-0-0-0-|
|--0--0--0--0--0--0--0--0-|--0--0--0--0--0-0-0-0-|
|--5--5--5--5--5--5--5--5-|--x--x--x--x--x-x-x-x-|
|--3--3--3--3--3--3--3--3-|--5--5--5--5--5-5-5-5-|
|--3--3--3--3--3--3--3--3-|--5--5--5--5--5-5-5-5-|
|--3--3--3--3--3--3--3--3-|--5--5--5--5--5-5-5-5-|



   [E]   [E]   [E]   [E]   [E]   [E]   [E]   [E]     [E]   [E]   [E]   [E]   [E]  [E]  [E]  [E]                                                
|-------------------------|----------------------|
|-10-10-10-10-10-10-10-10-|-10-10-10-10-10-8-8-8-|
|-------------------------|----------------------|
|-------------------------|----------------------|
|-------------------------|----------------------|
|-------------------------|----------------------|

|
| E E E E E E E E E E E E E E E E
|--0--0--0--0--0--0--0--0-|--0--0--0--0--0-0-0-0-|
|--0--0--0--0--0--0--0--0-|--0--0--0--0--0-0-0-0-|
|--5--5--5--5--5--5--5--5-|--5--5--5--5--5-5-5-5-|
|--7--7--7--7--7--7--7--7-|--7--7--7--7--7-7-7-7-|
|--0--0--0--0--0--0--0--0-|--0--0--0--0--0-0-0-0-|
|-------------------------|----------------------|



    [E]   [E]   [E]   [E]   [E]   [E]   [E]   [E]     [E]   [E]   [E]   [E]   [E]   [E]   [E]   [E]                                            
|--------------------------|-------------------------|
|-/13-13-13-13-13-13-13-13-|-12-12-12-12-12-12-12-12-|
|--------------------------|-------------------------|
|--------------------------|-------------------------|
|--------------------------|-------------------------|
|--------------------------|-------------------------|

|
| E E E E E E E E E E E E E E E E
|---0--0--0--0--0--0--0--0-|--0--0--0--0--0--0--0--0-|
|---0--0--0--0--0--0--0--0-|--0--0--0--0--0--0--0--0-|
|---5--5--5--5--5--5--5--5-|--x--x--x--x--x--x--x--x-|
|---3--3--3--3--3--3--3--3-|--5--5--5--5--5--5--5--5-|
|---3--3--3--3--3--3--3--3-|--5--5--5--5--5--5--5--5-|
|---3--3--3--3--3--3--3--3-|--5--5--5--5--5--5--5--5-|



Breakdown
    [C/E] E.  E.  E E. E. E   [F5] E.  E.  E E. E. E
||---0---0---0-0--0--0-|--0---0---0-0--0--0-|
||o-10--10--10-8--8--8-|-10--10--10-8--8--8-|
||---------------------|--------------------|
||---------------------|--------------------|
||o--------------------|--------------------|
||---------------------|--------------------|

|
| E. E. E E. E. E E. E. E E. E. E
||---------------------|--------------------|
||o--------------------|--------------------|
||---------------------|--------------------|
||---2---2---2-2--2--2-|--3---3---3-3--3--3-|
||o--3---3---3-3--3--3-|--3---3---3-3--3--3-|
||---2---2---2-2--2--2-|--3---3---3-3--3--3-|



  [A5] E.  E.  E E. E. E   [D5/G] E.  E.  E E. E. E
|--0---0---0-0--0--0-|--0---0---0-0--0--0--||
|-10--10--10-8--8--8-|-10--10--10-8--8--8-o||
|--------------------|---------------------||
|--------------------|---------------------||
|--------------------|--------------------o||
|--------------------|---------------------||

|
| E. E. E E. E. E E. E. E E. E. E
|--------------------|---------------------||
|--------------------|--------------------o||
|--------------------|---------------------||
|--7---7---7-7--7--7-|--7---7---7-7--7--7--||
|--7---7---7-7--7--7-|--5---5---5-5--5--5-o||
|--7---7---7-7--7--7-|--5---5---5-5--5--5--||



  [Amadd9]>
W +W +W +W
|-0--------|-(0)--------|-(0)--------|-(0)----||
|-8--------|-(8)--------|-(8)--------|-(8)----||
|-5--------|-(5)--------|-(5)--------|-(5)----||
|----------|------------|------------|--------||
|----------|------------|------------|--------||
|----------|------------|------------|--------||

|
| >
| W +W +W +W
|-0--------|-(0)--------|-(0)--------|-(0)----||
|-0--------|-(0)--------|-(0)--------|-(0)----||
|-5--------|-(5)--------|-(5)--------|-(5)----||
|-7--------|-(7)--------|-(7)--------|-(7)----||
|-0--------|-(0)--------|-(0)--------|-(0)----||
|----------|------------|------------|--------||



Drum Interlude
Gtrs I, II
E H.. Wx3
|--------------|--------||
|--------------|--------||
|--------------|--------||
|-7\-----------|--------||
|-7\-----------|--------||
|-7\-----------|--------||



Guitar Break
Wx8
|--------||
|--------||
|--------||
|--------||
|--------||
|--------||



Bridge
  [Esus4/Amadd9]E. E. E H      W          [Esus4/Amadd9]E. E. E H      W
|-0--0--0------|----------|-0--0--0------|------|
|-0--0--0------|----------|-0--0--0------|------|
|-4--4--5------|----------|-4--4--5------|------|
|-7--7--7------|----------|-7--7--7------|------|
|-0--0--0------|----------|-0--0--0------|------|
|--------------|----------|--------------|------|



  [Cmaj11Cmaj11/F]E. E. E H      W          [D5]E. E. E E. E. E   [G5]E. E. E E. E. E
|-0--0--0------|----------|-----------------|-----------------|
|-0--0--0------|----------|-----------------|-----------------|
|-4--4--5------|----------|-----------------|-----------------|
|-3--3--3------|----------|-0--0--0-0--0--0-|-5--5--5-5--5--5-|
|-3--3--3------|----------|-0--0--0-0--0--0-|-5--5--5-5--5--5-|
|-3--3--3------|----------|-0--0--0-0--0--0-|-5--5--5-5--5--5-|



Amadd9EsN.C.A
E. E. E S E S E E E S E S E S E S E E
|-0--0--0------------|---------------------|
|-0--0--0------------|---------------------|
|-5--5--4-/9-9-9-9-9-|-9-9-9-9-9-9-9-9-9-9-|
|-7--7--7--x-x-x-x-x-|-x-x-x-x-x-x-x-x-x-x-|
|-0--0--0-/7-7-7-7-7-|-7-7-7-7-7-7-7-7-7-7-|
|--------------------|---------------------|



Amadd9EsN.C.A
E. E. E S E S E E E S E S E S E S E E
|-0--0--0------------|---------------------|
|-0--0--0------------|---------------------|
|-5--5--4-/9-9-9-9-9-|-9-9-9-9-9-9-9-9-9-9-|
|-7--7--7--x-x-x-x-x-|-x-x-x-x-x-x-x-x-x-x-|
|-0--0--0-/7-7-7-7-7-|-7-7-7-7-7-7-7-7-7-7-|
|--------------------|---------------------|



F5 N.C.
E. E. E S E S E E E S E S E S E S E E
|--------------------|---------------------|
|--------------------|---------------------|
|-5--5--5-/5-5-5-5-5-|-5-5-5-5-5-5-5-5-5-5-|
|-3--3--3--x-x-x-x-x-|-x-x-x-x-x-x-x-x-x-x-|
|-3--3--3-/3-3-3-3-3-|-3-3-3-3-3-3-3-3-3-3-|
|-3--3--3------------|---------------------|



  [D5]E. E. E E. E. E   [G5]E. E. E E. E. E
|-----------------|-----------------||
|-----------------|-----------------||
|-----------------|-----------------||
|-0--0--0-0--0--0-|-5--5--5-5--5--5-||
|-0--0--0-0--0--0-|-5--5--5-5--5--5-||
|-0--0--0-0--0--0-|-5--5--5-5--5--5-||



Out-Chorus
    [Amadd9]Gtr I                               [Cmaj11/F]                  [Em7/G]
    [E]  [E]  [E]  [E]  [E]  [E]  [E]  [E]    [E]  [E]  [E]  [E]  [E]  [E]  [E]  [E]    [E]  [E]  [E]  [E]  [E]  [E]  [E]  [E]    [E]  [E]  [E]  [E]  [E]  [E]  [E]  [E]                       
||--0-0-0-0-0-0-0-0-|-0-0-0-0-0-0-0-0-|-0-0-0-0-0-0-0-0-|-0-0-0-0-0-0-0-0---||
||o-0-0-0-0-0-0-0-0-|-0-0-0-0-0-0-0-0-|-0-0-0-0-0-0-0-0-|-0-0-0-0-0-0-0-0--o||
||--5-5-5-5-5-5-5-5-|-5-5-5-5-5-5-5-5-|-5-5-5-5-5-5-5-5-|-x-x-x-x-x-x-x-x---||
||--7-7-7-7-7-7-7-7-|-7-7-7-7-7-7-7-7-|-3-3-3-3-3-3-3-3-|-5-5-5-5-5-5-5-5---||
||o-0-0-0-0-0-0-0-0-|-0-0-0-0-0-0-0-0-|-3-3-3-3-3-3-3-3-|-5-5-5-5-5-5-5-5--o||
||------------------|-----------------|-3-3-3-3-3-3-3-3-|-5-5-5-5-5-5-5-5---||

|
| Gtr II
| E E E E E E E E E E E E E E E E E E E E E E E E E E E E E E E E
||--0-0-0-0-0-0-0-0-|-0-0-0-0-0-0-0-0-|-0-0-0-0-0-0-0-0-|-0-0-0-0-0-0-0-0---||
||o-0-0-0-0-0-0-0-0-|-0-0-0-0-0-0-0-0-|-0-0-0-0-0-0-0-0-|-0-0-0-0-0-0-0-0--o||
||--5-5-5-5-5-5-5-5-|-5-5-5-5-5-5-5-5-|-5-5-5-5-5-5-5-5-|-x-x-x-x-x-x-x-x---||
||--7-7-7-7-7-7-7-7-|-7-7-7-7-7-7-7-7-|-3-3-3-3-3-3-3-3-|-5-5-5-5-5-5-5-5---||
||o-0-0-0-0-0-0-0-0-|-0-0-0-0-0-0-0-0-|-3-3-3-3-3-3-3-3-|-5-5-5-5-5-5-5-5--o||
||------------------|-----------------|-3-3-3-3-3-3-3-3-|-5-5-5-5-5-5-5-5---||



   [E]   [E]   [E]   [E]   [E]   [E]   [E]   [E]     [E]   [E]   [E]   [E]   [E]  [E]  [E]  [E]                                                
|-------------------------|----------------------|
|-10-10-10-10-10-10-10-10-|-10-10-10-10-10-8-8-8-|
|-------------------------|----------------------|
|-------------------------|----------------------|
|-------------------------|----------------------|
|-------------------------|----------------------|

|
| E E E E E E E E E E E E E E E E
|--0--0--0--0--0--0--0--0-|--0--0--0--0--0-0-0-0-|
|--0--0--0--0--0--0--0--0-|--0--0--0--0--0-0-0-0-|
|--5--5--5--5--5--5--5--5-|--5--5--5--5--5-5-5-5-|
|--7--7--7--7--7--7--7--7-|--7--7--7--7--7-7-7-7-|
|--0--0--0--0--0--0--0--0-|--0--0--0--0--0-0-0-0-|
|-------------------------|----------------------|



   [E]   [E]   [E]   [E]   [E]   [E]   [E]   [E]     [E]   [E]   [E] [E] [E] [E] [E] [E] 
|-------------------------|----------------------|
|-10-10-10-10-10-10-10-10-|-10-10-10-10-10-8-8-8-|
|-------------------------|----------------------|
|-------------------------|----------------------|
|-------------------------|----------------------|
|-------------------------|----------------------|

|
| E E E E E E E E E E E E E E E E
|--0--0--0--0--0--0--0--0-|--0--0--0--0--0-0-0-0-|
|--0--0--0--0--0--0--0--0-|--0--0--0--0--0-0-0-0-|
|--5--5--5--5--5--5--5--5-|--x--x--x--x--x-x-x-x-|
|--3--3--3--3--3--3--3--3-|--5--5--5--5--5-5-5-5-|
|--3--3--3--3--3--3--3--3-|--5--5--5--5--5-5-5-5-|
|--3--3--3--3--3--3--3--3-|--5--5--5--5--5-5-5-5-|



   [E]   [E]   [E]   [E]   [E]   [E]   [E]   [E]     [E]   [E]   [E]   [E]   [E]  [E]  [E]  [E]                                                
|-------------------------|----------------------|
|-10-10-10-10-10-10-10-10-|-10-10-10-10-10-8-8-8-|
|-------------------------|----------------------|
|-------------------------|----------------------|
|-------------------------|----------------------|
|-------------------------|----------------------|

|
| E E E E E E E E E E E E E E E E
|--0--0--0--0--0--0--0--0-|--0--0--0--0--0-0-0-0-|
|--0--0--0--0--0--0--0--0-|--0--0--0--0--0-0-0-0-|
|--5--5--5--5--5--5--5--5-|--5--5--5--5--5-5-5-5-|
|--7--7--7--7--7--7--7--7-|--7--7--7--7--7-7-7-7-|
|--0--0--0--0--0--0--0--0-|--0--0--0--0--0-0-0-0-|
|-------------------------|----------------------|



    [E]   [E]   [E]   [E]   [E]   [E]   [E]   [E]     [E]   [E]   [E]   [E]   [E]   [E]   [E]   [E]                                            
|--------------------------|-------------------------|
|-/13-13-13-13-13-13-13-13-|-12-12-12-12-12-12-12-12-|
|--------------------------|-------------------------|
|--------------------------|-------------------------|
|--------------------------|-------------------------|
|--------------------------|-------------------------|

|
| E E E E E E E E E E E E E E E E
|---0--0--0--0--0--0--0--0-|--0--0--0--0--0--0--0--0-|
|---0--0--0--0--0--0--0--0-|--0--0--0--0--0--0--0--0-|
|---5--5--5--5--5--5--5--5-|--x--x--x--x--x--x--x--x-|
|---3--3--3--3--3--3--3--3-|--5--5--5--5--5--5--5--5-|
|---3--3--3--3--3--3--3--3-|--5--5--5--5--5--5--5--5-|
|---3--3--3--3--3--3--3--3-|--5--5--5--5--5--5--5--5-|



  [Amadd9] >
W +W +W +W
|--0--------|--(0)--------|--(0)--------|--(0)----*|
|-10--------|-(10)--------|-(10)--------|-(10)----*|
|-----------|-------------|-------------|---------*|
|-----------|-------------|-------------|---------*|
|-----------|-------------|-------------|---------*|
|-----------|-------------|-------------|---------*|

|
| >
| W +W +W +W
|--0--------|--(0)--------|--(0)--------|--(0)----*|
|--0--------|--(0)--------|--(0)--------|--(0)----*|
|--5--------|--(5)--------|--(5)--------|--(5)----*|
|--7--------|--(7)--------|--(7)--------|--(7)----*|
|--0--------|--(0)--------|--(0)--------|--(0)----*|
|-----------|-------------|-------------|---------*|
--------------------------------------------------------------------------------



Duration Legend
---------------
W - whole; H - half; Q - quarter; E - 8th; S - 16th; T - 32nd; X - 64th; a - acciaccatura

+ - note tied to previous; . - note dotted; .. - note double dotted
Uncapitalized letters represent notes that are staccato (1/2 duration)
Irregular groupings are notated above the duration line
Duration letters will always appear directly above the note/fret number it represents the
duration for. Duration letters with no fret number below them represent rests. Multi-
bar rests are notated in the form Wxn, where n is the number of bars to rest for. Low
melody durations appear below the staff

Tablature Legend
----------------

h - hammer-on
p - pull-off
b - bend
pb - pre-bend
r - bend release (if no number after the r, then release immediately)
/\ - slide into or out of (from/to "nowhere")
s - legato slide
S - shift slide
- natural harmonic
[n]  - artificial harmonic
n(n) - tapped harmonic
~ - vibrato
tr - trill
T - tap
TP - trem. picking
PM - palm muting
\n/ - tremolo bar dip; n = amount to dip
\n - tremolo bar down
n/ - tremolo bar up
/n\ - tremolo bar inverted dip
= - hold bend; also acts as connecting device for hammers/pulls
<> - volume swell (louder/softer)
x - on rhythm slash represents muted slash
o - on rhythm slash represents single note slash

Misc Legend
-----------

| - bar
|| - double bar
||o - repeat start
o|| - repeat end
*| - double bar (ending)
: - bar (freetime)
$ - Segno
& - Coda
Tempo markers - = BPM(8/16=s8/s16), where s8 = swing 8ths, s16 = swing 16ths

Important: The song above is NOT stored on the Chordie server. The original song is hosted at www.xguitar.com. Chordie works as a search engine and provides on-the-fly formatting. Chordie does not index songs against artists'/composers' will. To remove this song please click here.

Text color:
Chord color:
Chord grids: 
Font size:    
Page size: 

A5 Amadd9 C/E Cmaj7/A D5 D5/G E Em7/G F5 G5
variations - click chord images

Login - add to songbook

Transpose chords

Tuning

Rating click stars to rate

Layout
Accuracy

SHARE PAGE  




You need to log in to post comments