Guitar Tabs, Chords and Lyrics


Some Will Seek Forgiveness, Others Escape   Underoath

e---0--2----0--2----------|


b-0------0----------------|


g-------------------------|

D-------------------------| about 5 times
A-------------------------|
E-------------------------|
e------------------------|
b-----5---7--------5---7-|
g--4-------------4-------|
D------------------------|
A------------------------|
E------------------------| about 5 times
e---2-0----2-0------------|
b-0------0----------------|
g-------------------------|
D-------------------------|
A-------------------------|
E-------------------------|
[G]I heard a voice through the discord
[Cadd9]A deluge of Passersby
[G]And I saw one gaze frozen in time
[Cadd9]Watching me Passing by
and play this
Guitar 2
e----------7---------7---|
b--5----7-----5----7-----|
g------------------------|  8 times
D------------------------|
A------------------------|
E------------------------|

during the And i swear i'll know your face in the crowd

and if you want to add a third guitar theres one that goes during that same part
Guitar 3
e-----------------------|
b-----------------------|
g--7~--6~--4~---2~------|
D-----------------------|
A-----------------------|
E-----------------------|


I'm not for sure about the chorus but i tried to tab it out my best
[Cadd9]Hey Unfa[Dm]ithful I will [Em7]teach you
[Em7]To be stronger (to be s[Cadd9]tronger)
[Cadd9]Hey ungra[Dm]ceful I will t[Em7]each you
Em7 Cadd9 (one down strum)
to forgive one another

During that Guitar 1 can play
e------5--------5------------|
b--3-5------3--5-------------|
g----------------------------|
D----------------------------|  I dont know if thats exactly what they're playing
A----------------------------|  and i dont know how long it lasts but i think it sounds
E----------------------------|  good


(right after chorus)
Guitar 2
e-------------------------|
b-5--7--------------------|
g------7---4--------------|
D-------------7----5~-----|
A-------------------------|
E-------------------------|



Verse 2
Guitar 1
e---2-0----2-0------------|
b-0------0----------------|
g-------------------------|
D-------------------------|
A-------------------------|
E-------------------------|


Guitar 2

[G]Here's my kiss to betray
[Cadd9]Desperate to brush the lips of grace
[G]Do you feel hollow when you think of how[Cadd9] I lied?

and then During "Oh sweet angel of mercy it goes:

Guitar 1:
e---------14--------------|
b---12---------14---------|
g-------------------------|
D-------------------------|
A-------------------------|
E-------------------------|
E-------------------------|


Guitar 2:
e----------7---------7---|
b--5----7-----5----7-----|
g------------------------|  8 times
D------------------------|
A------------------------|
E------------------------|



Guitar 3
e-----------------------|
b-----------------------|
g--7~--6~--4~---2~------|
D-----------------------|
A-----------------------|
E-----------------------|


Guitar 2
[Cadd9]Hey Unfa[Dm]ithful I will [Em7]teach you
[Em7]To be stronger (to be s[Cadd9]tronger)
[Cadd9]Hey ungra[Dm]ceful I will t[Em7]each you
[Em7]to forgive one anoth[Cadd9]er

Guitar 1
e------5--------5------------|
b--3-5------3--5-------------|
g----------------------------|
D----------------------------|
A----------------------------|
E----------------------------|


Guitar 3
e---------14--------------|
b---12---------14---------|
g-------------------------|
D-------------------------|
A-------------------------|
E-------------------------|
E-------------------------|


(play All down strum)
[Cadd9]Hey Unfa[Dm]ithful  I will t[Em7]each you
[Em7]To be stronger to be stronger
(start going at a faster pace)
[Cadd9]Hey unlo[Dm]ving i will love[Em7] you
[Em7]I will love you
Cadd9 (one down Strum)
I will love you
Guitar 1
e--5-5-5-5-5-5-----------------|
b--------------5-5-5-----7-7-7-|
g------------------------------|
D------------------------------|
A------------------------------|
E------------------------------|

(and Jesus I'm ready to come home)

During all the screaming its ummmm

em7 Cadd9 dm

em7 Cadd9 Dm

(hey unfaithful Hey ungraceful Hey unloving I will love you
Hey unloving, I will lo[Cadd9]ve you)


Guitar 1
e---------------------------|
b---------------------------|
g--4--6---7-----------------|
D--------------7------------|
A---------------------------|
E---------------------------|

Then
Guitar 2

e-----10---14---12----------|
b-12------------------------|
g---------------------------|
D---------------------------|
A---------------------------|
E---------------------------|

Then

Guitar 1
e---------------------------|
b---------------------------|
g--4--6---7-----------------|
D--------------7------------|
A---------------------------|
E---------------------------|

Then

Guitar 2

e-----10-----14---12--17----|
b-12------------------------|
g---------------------------|
D---------------------------|
A---------------------------|
E---------------------------|



Then both play at the same time

Guitar 1
e---------------------------|
b---------------------------|
g--4--6---7-----------------|
D--------------7~-----------|
A---------------------------|
E---------------------------|


Guitar 2

e-----10---14---12~---------|
b-12------------------------|
g---------------------------|
D---------------------------|
A---------------------------|
E---------------------------|



Zee end.

Important: The song above is NOT stored on the Chordie server. The original song is hosted at www.xguitar.com. Chordie works as a search engine and provides on-the-fly formatting. Chordie does not index songs against artists'/composers' will. To remove this song please click here.

Text color:
Chord color:
Chord grids: 
Font size:    
Page size: 

Cadd9 Dm Em7 G
variations - click chord images

Login - add to songbook

Transpose chords

Tuning

Rating click stars to rate

Layout
Accuracy

SHARE PAGE  




You need to log in to post comments