Chordie logo

Death Metal Victory    Unleashed



Band:  (Unleashed)
Album: (Warrior)
Song:  (Death Metal Victory)

.  - palm mute           /  - slide up to
\  - slide down to       ~  - vibrato
h  - hammer on           b  - Bend
p  - pull off            Suffixes for bend
t  - tap                 f  - full bend    h - half bend
ph - pinched harmonic    q  - quarter bend t - tap bend
*  - see comment         ^  - Hold bend    r release bend
x  - Stuccatto           ~  - vibrato bend
,  - slight palm mute    () - ghost note, sustained note
"  - tremolo note         - Trill

Tunning "B" "B"E"A"D"F#"B"

|---------------------------------------------------------------------|
|---------------------------------------------------------------------|
|---------------------------------------------------------------------|
|---------------------------------------------------------------------|
|-5-------------3--5--1---------------5--------3--5--1-----6----------|
|-5-------------3--5--1---------------5--------3--5--1-----6----------|

|---------------------------------------------------------------------|
|---------------------------------------------------------------------|
|---------------------------------------------------------------------|
|---------------------------------------------------------------------|
|-5-5-5-5-5-5-3-5-1-1-1-1-1-1-6---5-5-5-5-5-5-3-5-1-1-1-1-1-1-6-6-6-6-|
|-5-5-5-5-5-5-3-5-1-1-1-1-1-1-6---5-5-5-5-5-5-3-5-1-1-1-1-1-1-6-6-6-6-|

|---------------------------------------------------------------------|
|---------------------------------------------------------------------|
|---------------------------------------------------------------------|
|---------------------------------------------------------------------|
|-5-5-5-5-5-5-3-5-1-1-1-1-1-1-6---5-5-5-5-5-5-3-5-1-1-1-1-1-1-6-6-6-6-|
|-5-5-5-5-5-5-3-5-1-1-1-1-1-1-6---5-5-5-5-5-5-3-5-1-1-1-1-1-1-6-6-6-6-|

|---------------------------------------------------------------------|
|---------------------------------------------------------------------|
|---------------------------------------------------------------------|
|---------------------------------------------------------------------|
|-5-5-5-5-5-5-3-5-1-1-1-1-1-1-6---5-5-5-5-5-5-3-5-1-1-1-1-1-1-6-6-6-6-|
|-5-5-5-5-5-5-3-5-1-1-1-1-1-1-6---5-5-5-5-5-5-3-5-1-1-1-1-1-1-6-6-6-6-|

|---------------------------------------------------------------------|
|---------------------------------------------------------------------|
|---------------------------------------------------------------------|
|---------------------------------------------------------------------|
|-5-------------3--5--1---------------5--------3--5--1-----6----------|
|-5-------------3--5--1---------------5--------3--5--1-----6----------|

|---------------------------------------------------------------------|
|---------------------------------------------------------------------|
|---------------------------------------------------------------------|
|---------------------------------------------------------------------|
|-5-5-5-5-5-5-3-5-1-1-1-1-1-1-6---5-5-5-5-5-5-3-5-1-1-1-1-1-1-6-6-6-6-|
|-5-5-5-5-5-5-3-5-1-1-1-1-1-1-6---5-5-5-5-5-5-3-5-1-1-1-1-1-1-6-6-6-6-|

|---------------------------------------------------------------------|
|---------------------------------------------------------------------|
|---------------------------------------------------------------------|
|---------------------------------------------------------------------|
|-5-5-5-5-5-5-3-5-1-1-1-1-1-1-6---5-5-5-5-5-5-3-5-1-1-1-1-1-1-6-6-6-6-|
|-5-5-5-5-5-5-3-5-1-1-1-1-1-1-6---5-5-5-5-5-5-3-5-1-1-1-1-1-1-6-6-6-6-|

|---------------------------------------------------------------------|
|---------------------------------------------------------------------|
|---------------------------------------------------------------------|
|---------------------------------------------------------------------|
|-5-5-5-5-5-5-3-5-1-1-1-1-1-1-6---5-5-5-5-5-5-3-5-1-1-1-1-1-1-6-6-6-6-|
|-5-5-5-5-5-5-3-5-1-1-1-1-1-1-6---5-5-5-5-5-5-3-5-1-1-1-1-1-1-6-6-6-6-|

|---------------------------------------------------------------------|
|---------------------------------------------------------------------|
|---------------------------------------------------------------------|
|---------------------------------------------------------------------|
|-5-------------3--5--1---------------5--------3--5--1-----6----------|
|-5-------------3--5--1---------------5--------3--5--1-----6----------|

No Solo Yet


|---------------------------------------------------------------------|
|---------------------------------------------------------------------|
|---------------------------------------------------------------------|
|---------------------------------------------------------------------|
|-5-------------3--5--1---------------5--------3--5--1-----6----------|
|-5-------------3--5--1---------------5--------3--5--1-----6----------|

|---------------------------------------------------------------------|
|---------------------------------------------------------------------|
|---------------------------------------------------------------------|
|---------------------------------------------------------------------|
|-5-5-5-5-5-5-3-5-1-1-1-1-1-1-6---5-5-5-5-5-5-3-5-1-1-1-1-1-1-6-6-6-6-|

|-5-5-5-5-5-5-3-5-1-1-1-1-1-1-6---5-5-5-5-5-5-3-5-1-1-1-1-1-1-6-6-6-6-|

|---------------------------------------------------------------------|
|---------------------------------------------------------------------|
|---------------------------------------------------------------------|
|---------------------------------------------------------------------|
|-5-5-5-5-5-5-3-5-1-1-1-1-1-1-6---5-5-5-5-5-5-3-5-1-1-1-1-1-1-6-6-6-6-|
|-5-5-5-5-5-5-3-5-1-1-1-1-1-1-6---5-5-5-5-5-5-3-5-1-1-1-1-1-1-6-6-6-6-|

|---------------------------------------------------------------------|
|---------------------------------------------------------------------|
|---------------------------------------------------------------------|
|---------------------------------------------------------------------|
|-5-5-5-5-5-5-3-5-1-1-1-1-1-1-6---5-5-5-5-5-5-3-5-1-1-1-1-1-1-6-6-6-6-|
|-5-5-5-5-5-5-3-5-1-1-1-1-1-1-6---5-5-5-5-5-5-3-5-1-1-1-1-1-1-6-6-6-6-|

|---------------------------------------------------------------------|
|---------------------------------------------------------------------|
|---------------------------------------------------------------------|
|---------------------------------------------------------------------|
|-5-------------3--5--1---------------5--------3--5--1-----6----------|
|-5-------------3--5--1---------------5--------3--5--1-----6----------|

|---------------------------------------------------------------------|
|---------------------------------------------------------------------|
|---------------------------------------------------------------------|
|---5-----------------------------------------------------------------|
|---5-----------------------------------------------------------------|



Important: The song above is NOT stored on the Chordie server. The original song is hosted at www.xguitar.com. Chordie works as a search engine and provides on-the-fly formatting. Chordie does not index songs against artists/composers will. To remove this song please click here.

This song is displayed as text-only. Transposing and tuning is only available for chordpro-songs.

Login - add to songbook

Rating click stars to rate

Layout
Accuracy

SHARE PAGE  

You need to log in to post comments