Chordie logo


If They Had Eyes    Unleashed



B-E-A-D-F#-B

Rif A

------------------------------------------------------------------|
------------------------------------------------------------------|
------------------------------------------------------------------|
--2--2-2--2-----------------4---2-2--2-----5__6--3----------------|
--2--2-2--2---3---5--5---3--2---2-2--2----------------------------|
--0--0-0--0---1---3--3---1------0-0--0-----3__4--1----------------|
     * *          *  *          * *


------------------------------------------------------------------|
------------------------------------------------------------------|
------------------------------------------------------------------|
--2--2-2--2---2--------------------4---2-2--2----2---2---5__6--3--|
--2--2-2--2---2------3---5--5---3--2---2-2--2----2---2------------|
--0--0-0--0-0-0-0----1---3--3---1------0-0--0--0-0-0-0---3__4--1--|
     * *    *   *        *  *          * *     *   *

Rif C

------------------------------------------------------------------|
------------------------------------------------------------------|
---------3---------------------------3----------------------------|
--2--3---3--3--2---------1-------3---3---9----------7-------------|
--2--3---1--3--2---2--3----3--2--3---1---7----7--8---8--7---------|
--0--1------1--0-----------------1-------0------------------------|


------------------------------------------------------------------|
------------------------------------------------------------------|
---------3---------------------------3----------------------------|
--2--3---3--3--2---------1-------3---3---9---------7--------------|
--2--3---1--3--2---2--3----3--2--3---1---7----7--8---8--7__8--7---|
--0--1------1--0-----------------1-------0------------------------|


Rif D
--------------------------------------------------------------------|
--------------------------------------------------------------------|
--------------------------------------------------------------------|
---3--3---2--2-2--2---2----------------2--2-2--2---2----------------|
---3--1---2--2-2--2---2----5---8---3---2--2-2--2---2----------------|
---1------0--0-0--0-0-0-0--3---6---1---0--0-0--0-0-0-0--3__4--3--1--|
  [..........repite 3 veces.........]


Rif E
------------------------------------------------------------------------|
------------------------------------------------------------------------|
------------------------------------------------------------------------|
--7-------5-------8--5_6-5-3---7-------5-------8--5__6--3-3-------------|
--7-------5-------8------------7-------5-------8------------------------|
--5--0-0--3--0-0--6--3_4-3-1---5--0-0--3--0-0--6--3__4--1-1-------------|
     * *     * *                  * *     * *

Rif F
--------------------------------------------------------------------------|
--------------------------------------------------------------------------|
--------------------------------------------------------------------------|
-2----2--2----2------3------------7---------7-----6-------7---------7-----|
-2----2--2----2--2-3-1-3-2----7-8---8---7-8---8-7-----7-8---8---7-8---8-7-|
-0-00-0--0-00-0--0-1---1-0--0---------0-------------0---------0-----------|
   **      **               *         *             *
       *

Guitar I & II
----------------------------------------------------------------------------|
---------10--------------10---------9-----------10----------------10--------|
---9--10-----10----9--10-----10--9------9---10------10-----9---10----10--9--|
---------7---------------7----------6-----------7-----------------7---------|
---7--8------8-----7--8------8---7------7---8-------8------7---8-----8---7--|
-0---------------0--------------------0------------------0------------------|
 *               *                    *
  *

Rif G

----------------------------------------------------------------------|
----------------------------------------------------------------------|
----------------------------------------------------------------------|
-------------3-----------------------------3---9----------------------|
----2-----3--1---2----6----3----2-----3----1---7---6-----3------------|
----0-----1------0----4----1----0-----1------------4-----1------------|


Rif H
-----------------------------------------------------------------------------|
-------------------4__3--1--4---------------------4__3--1--------------------|
--------------0__3---------------------------0__3----------3-----3-----------|
-2--22-2-22-2------------------2--22-2-22-2-------------------------3--2--2--|
-2--22-2-22-2------------------2--22-2-22-2-------------------------------2--|
-0--00-0-00-0------------------0--00-0-00-0-------------------------------0--|


Important: The song above is NOT stored on the Chordie server. The original song is hosted at www.xguitar.com. Chordie works as a search engine and provides on-the-fly formatting. Chordie does not index songs against artists/composers will. To remove this song please click here.

This song is displayed as text-only. Transposing and tuning is only available for chordpro-songs.

Login - add to songbook

Rating click stars to rate

Layout
Accuracy

SHARE PAGE  




You need to log in to post comments