Guitar Tabs, Chords and Lyrics


Babalon    Unwritten Law



"Babalon"
Unwritten Law
CD--Elva

Dropped D, G, C, F, A, D tuning.

Intro 1-Guitar 1
D|-------------------------------------------------
A|-------------------------------------------------
F|-------------------------------------------------
C|--------------------------------------------------
G|----2---------1--------0-----------------0--1-
D|--------0-0--------0-0----0-0--3--0-0------0--0

Intro 2-Guitar 2
D|-------------------------------------------------------
A|------------------------------------------------------
F|--(Wait for 1st Guitar)----9---8---7-------5---7
C|-------------------------------------------7---------
G|-----------------------------------------------------
D|-----------------------------------------------------

Pre-Verse (Both Guitars)
D|--------------------------------------
A|--------------------------------------
F|--------------------------------------
C|---------------------------------------
G|--2-2----2-2---2-2---2-2--------0
D|--0-0----0-0---0-0---0-0---3-2--

Verse
D|----------------------------------------------------------------------------------
A|----------------------------------5-----------------------------------------------
F|--------------------------------4-------------------------------------------------
C|----------------------------2-2----------------------------------------------7----
G|--2-2---2-2---5-5---7-7-----------2-2---2-2---2-2----2-2---2-2---5-5---7-7---5---7
D|--0-0---0-0---3-3---5-5-----------0-0---0-0---0-0----0-0---0-0---3-3---5-5-------5

D|-----------------------------------
G|----------------------------------
F|--------------------------7-7-7-
C|----4-4-4-4---------------5-5-5-
G|----2-2-2-2---5-5-5-------------
D|--------------3-3-3-------------





Chorus
D|-----------------------------------------------------------------------------
A|---5-5-5-5-5-5-5-5--------------------------5-5-5-5-5-5-5-5---4-4-4-4-4-4-4-4
F|---4-4-4-4-4-4-4-4---4-4-4-4-4-4-4-4--------4-4-4-4-4-4-4-4---4-4-4-4-4-4-4-4
C|---------------------4-4-4-4-4-4-4-4-----------------------------------------
G|-----------------------------------------------------------------------------
D|-----------------------------------------------------------------------------

D|-------------------------------------------------------------------------------
A|---5-5-5-5-5-5-5-5--------------------------4-4-4-4-4-4-4-4-4-4-4-4------------
F|---4-4-4-4-4-4-4-4---------4-4-4-4-4-4-4-4--4-4-4-4-4-4-4-4-4-4-4-4------------
C|---------------------------4-4-4-4-4-4-4-4-------------------------------------
G|-------------------------------------------------------------------------------
D|-------------------------------------------------------------------------3---2-

D|-----------------------------------------------------------------------------------
A|------------0--------0------------0---------0-----------------------------------
F|-------------0--------0------------0---------0-----------------------------7-7-7-7-
C|------------------------------2---------2---------5-5-5-5-5-5-5------------5-5-5-5
G|------2-----------2---------0----------2----------3-3-3-3-3-3-3-3--5-5-5-5--------
D|----0-----------3--------------------------------------------------3-3-3-3--------

Pre-Interlude 1-Guitar 1
D|---7-------6-------5-------4--------5----6--
A|------5-5----5-5----5-5-----5-5-----5-----
F|------------------------------------------------
C|------------------------------------------------
G|-----------------------------------------------
D|-----------------------------------------------

Pre-Interlude 2-Guitar 2
D|---------------------------------------------------------------------------
A|---------------------------------------------------------------------------
F|---------------------------------------------------------------------------
C|---------------------------------------------------------------------------
G|---2-2---2-2---2-2---2-2---2-2---2-2---2-2---2-2---2-2---2-2---2-2---2-2---
D|---0-0---0-0---0-0---0-0---0-0---0-0---0-0---0-0---0-0---0-0---0-0---0-0---

Interlude
D|--------------------------------------------------------------------------------
A|--------------------------------------------------------------------------------
F|--------------------------------------------------------------------------------
C|---------------------2---------------------------------------------------------2
G|---2----(Bass Solo)--0---(Bass Solo)---------------------------2---(Bass Solo)-0
D|---0--------------------------------------------5h6p5-5--3--0--0----------------

D|------0----0-------0-------------------------0---0-------0----------------------
A|---------0---0-0-0----0-0----------------------0---0-0-0---0-0------------------
F|-----------------------------------1--------------------------------------------
C|------------------------------2---------------------------------2----2---3-4-3-2
G|-2----------------------------0------------2--------------------0----0---1-2-1-0
D|-0-----------------------------------------0------------------------------------

Outro
D|--------------------------
A|--------------------------
F|--------------------------
C|--------------------------
G|---2-2---2-2---2-2---2-2--
D|---0-0---0-0---0-0---0-0--

Order of Play:
Intro 1		x9
Intro 2		x7	(2 riffs after Intro 1)
Pre-Verse 		x1
Verse		x2
Chorus		x1
Intro 1		x5
Intro 2		x5
Verse		x2
Chorus		x1
Intro 1		x7
Intro 2		x7
Pre-Interlude 1	x4
Pre-Interlude 2	x1	(After, switch to Intro 1 x2)
Interlude		x1
Intro 1		x15
Intro 2		x17
Outro		x1



Important: The song above is NOT stored on the Chordie server. The original song is hosted at www.xguitar.com. Chordie works as a search engine and provides on-the-fly formatting. Chordie does not index songs against artists'/composers' will. To remove this song please click here.

This song is displayed as text-only. Transposing and tuning is only available for chordpro-songs.

Login - add to songbook

Rating click stars to rate

Layout
Accuracy

SHARE PAGE  




You need to log in to post comments