Chordie logo

Fight    Unwritten Law



BAND: Unwritten Law
SONG: F.I.G.H.T
ALBUM: Here's to the Mourning

Tuning:Drop D, Then 1/2 step down

Intro-fast
--------------------------------------------------
--------------------------------------------------
--------------------------------------------------
5-3-0-5-0-3-0x-0x-0x-0x-0x-0x-0x-0x-0x-0x-0x-0x---
5-3-0-5-0-3-0x-0x-0x-0x-0x-0x-0x-0x-0x-0x-0x-0x---
5-3-0-5-0-3-0x-0x-0x-0x-0x-0x-0x-0x-0x-0x-0x-0x---

--------------------------------------------------
--------------------------------------------------
--------------------------------------------------
0-5-3-0-5-0-3-0x-0x-0x-0x-0x-0x-0x-0x-0x-0x-0x-0x-
0-5-3-0-5-0-3-0x-0x-0x-0x-0x-0x-0x-0x-0x-0x-0x-0x-
0-5-3-0-5-0-3-0x-0x-0x-0x-0x-0x-0x-0x-0x-0x-0x-0x-

--------------------------------------------------
--------------------------------------------------
--------------------------------------------------
0-5-3-0-5-0-3-0x----------------------------------
0-5-3-0-5-0-3-0x----------------------------------


Important: The song above is NOT stored on the Chordie server. The original song is hosted at www.xguitar.com. Chordie works as a search engine and provides on-the-fly formatting. Chordie does not index songs against artists/composers will. To remove this song please click here.

This song is displayed as text-only. Transposing and tuning is only available for chordpro-songs.

Login - add to songbook

Rating click stars to rate

Layout
Accuracy

SHARE PAGE  

You need to log in to post comments