Chordie logo

Lost Control    Unwritten Law



tuned a half step down

for riffs i tab some of the rhythm for chords your on your own,
its christmas eve/morning and i'm lazy

intro
-----------------------------------|-------------
-----------------------------------|-------------
-----------------------------------|-------2-----
-----------------------------------|----5--2-----
-----------------------------------|----5--0-----
-0-0-0-0-0-0-11-12-0-0-11-12-------|----3--------

on that last A chord theres another guitar playing an octave on the
fifth and 3rd strings playing the 7th and 9th fret respectivly

verse
-------------------------------------
-------------------------------------
--------5-2-7----------------------
-2-5----5-2-7-----------------------
-2-5----3-0-5-----------------------
-0-3--------------------------------

chorus
------------------------------------
------------------------------------
-----2-5-7-------------------------
-2-5-2-5-7--------------------------
-2-5-0-3-5--------------------------


Important: The song above is NOT stored on the Chordie server. The original song is hosted at www.xguitar.com. Chordie works as a search engine and provides on-the-fly formatting. Chordie does not index songs against artists/composers will. To remove this song please click here.

This song is displayed as text-only. Transposing and tuning is only available for chordpro-songs.

Login - add to songbook

Rating click stars to rate

Layout
Accuracy

SHARE PAGE  

You need to log in to post comments