Guitar Tabs, Chords and Lyrics


I Caught Fire    Used



Band: The Used
Song: I Caught Fire
Album: In Love and Death
tabbed by: emopunk99

tuning: Drop D (DADGBe)

intro
E|--9p0-----------7p0-----------------||
B|------9p0-7h9p0-----9p0-7h9p0-7p0---||
G|------------------------------------||
D|------------------------------------|| x7
A|------------------------------------||
D|------------------------------------||

intro guitar II
E|-------------------------------------------------||
B|-------------------------------------------------||
G|--66x-44x----------44444444-22222222-6666-4444x--||
D|--66x-44x-22222222-44444444-22222222-6666-4444x--||
A|--44x-22x-22222222-22222222-00000000-4444-2222x--||
D|----------22222222-------------------------------||

verse 1
E|--9~----7~----------9~----7~------||
B|-----9~----9~-9~-------9~----9~---||
G|----------------------------------||
D|----------------------------------||
A|----------------------------------||
D|----------------------------------||


E|------------------------------------------------||
B|------------------------------------------------------||
G|--6666666666666666-9999999999999999-2-2-2-2-----------||
D|------------------------------------2-2-2-2-----------||
A|------------------------------------0-0-0-0-----------||
D|------------------------------------------------------||
pm  ................ ................ . . . .

chorus
E|-----------------------------------------||
B|-----------------------------------------||
G|-----------44444444-22222222-6666-4444---||
D|--22222222-44444444-22222222-6666-4444---||
A|--22222222-22222222-00000000-4444-2222---||
D|--22222222-------------------------------||

E|---------------------------------------||
B|---------------------------------------||
G|-----------44444444-22222222-66x-44x---||
D|--22222222-44444444-22222222-66x-44x---||
A|--22222222-22222222-00000000-44x-22x---||
D|--22222222-----------------------------||

E|--9p0-----------7p0-----------------||
B|------9p0-7h9p0-----9p0-7h9p0-7p0---||
G|------------------------------------||
D|------------------------------------|| x2
A|------------------------------------||
D|------------------------------------||

verse 2
E|--9-9-9----9--9-9---12-12-12-12------||
B|--9-------10--------10----------10---||
G|--9--------9---------9---------------||
D|-------------------------------------||
A|-------------------------------------||
D|-------------------------------------||


E|-------------------------------------------------------------||
B|-------------------------------------------------------------||
G|--6666666666666666-9999999999999999-2-2-22-2-2-22------------||
D|------------------------------------2-2-22-2-2-22-44444444---||
A|------------------------------------0-0-00-0-0-00-44444444---||
D|--------------------------------------------------44444444---||
pm  ................ ................ . . .. . . ..

guitar II
E|--9999999999999999-12121212121212121212121212121212----||
B|-------------------------------------------------------||
G|-------------------------------------------------------||
D|-------------------------------------------------------||
A|-------------------------------------------------------||
D|-------------------------------------------------------||

guitar II
E|------------------------------------------||
B|------------------------------------------||
G|--9-9-99-99-9-9--9-9-99-99-9-9-22222222---||
D|--x-x-xx-xx-x-x--x-x-xx-xx-x-x-22222222---||
A|--7-7-77-77-7-7--7-7-77-77-7-7-00000000---||
D|------------------------------------------||

chorus
E|-----------------------------------------||
B|-----------------------------------------||
G|-----------44444444-22222222-6666-4444---||
D|--22222222-44444444-22222222-6666-4444---||
A|--22222222-22222222-00000000-4444-2222---||
D|--22222222-------------------------------||

E|-------------------------------||
B|-------------------------------||
G|-----------44444444-22222222---||
D|--22222222-44444444-22222222---||
A|--22222222-22222222-00000000---||
D|--22222222---------------------||

E|--9p0-----------7p0---------------12p0-9p0------------------------------||
B|------9p0-7h9p0-----9p0-7h9p0-7p0----------10h12p0-10p0-9p0-7h9p0-7p0---||
G|------------------------------------------------------------------------||
D|------------------------------------------------------------------------||
A|------------------------------------------------------------------------||
D|------------------------------------------------------------------------||

bridge
E|-----------------------------------------||
B|-----------------------------------------||
G|--66666x-64-22222x-2---------------------||
D|--66666x-64-22222x-22-2222222222222222---|| x2
A|--44444x-42-00000x-02-2222222222222222---||
D|--------------------2-2222222222222222---||

guitar II
E|-------------------------------------------------------||
B|-------------------------------------------------------||
G|--9999999999999999--12121212121212121212121212121212---||
D|--xxxxxxxxxxxxxxxx---x-x-x-x-x-x-x-x-x-x-x-x-x-x-x-x---||
A|--7777777777777777--10101010101010101010101010101010---||
D|-------------------------------------------------------||


bridge guitar II
E|--12p0-9p0------------------------------||
B|-----------10h12p0-10p0-9p0-7h9p0-7p0---||
G|----------------------------------------||
D|----------------------------------------||
A|----------------------------------------||
D|----------------------------------------||

chorus
E|-----------------------------------------||
B|-----------------------------------------||
G|-----------44444444-22222222-6666-4444---||
D|--22222222-44444444-22222222-6666-4444---||
A|--22222222-22222222-00000000-4444-2222---||
D|--22222222-------------------------------||

E|---------------------------------------------||
B|---------------------------------------------||
G|-----------44444444-22222222-666666-444444---||
D|--22222222-44444444-22222222-666666-444444---||
A|--22222222-22222222-00000000-444444-222222---||
D|--22222222-----------------------------------||
pm                             ....   ....

E|-----------------------------12p0-9p0------------------------------||
B|--------------------------------------10h12p0-10p0-9p0-7h9p0-7p0---||
G|--99999999-44444444-22222222---------------------------------------||
D|--99999999-44444444-22222222---------------------------------------|| x2
A|--77777777-22222222-00000000---------------------------------------||
D|-------------------------------------------------------------------||

E|--12p0-9p0----------------------------12~---||
B|-----------10h12p0-10p0-9p0-7h9p0-7p0-------||
G|--------------------------------------------||
D|--------------------------------------------||
A|--------------------------------------------||


Important: The song above is NOT stored on the Chordie server. The original song is hosted at www.xguitar.com. Chordie works as a search engine and provides on-the-fly formatting. Chordie does not index songs against artists'/composers' will. To remove this song please click here.

This song is displayed as text-only. Transposing and tuning is only available for chordpro-songs.

Login - add to songbook

Rating click stars to rate

Layout
Accuracy

SHARE PAGE  




You need to log in to post comments