Guitar Tabs, Chords and Lyrics


Sound Effects and Overdramatics    Used



Artist: The Used
Title: Sound Effects and Overdramatics
Tabbed By: Max
Tuning: Drop D

Intro
------------------------------------------------------------
---------------------------------------------------------
--------------------------------------------------------
-XXXXXXXXXXXXXXXXXXXXXXXXXXXXXX------------------------
-XXXXXXXXXXXXXXXXXXXXXXXXXXXXXX--------------------------
-XXXXXXXXXXXXXXXXXXXXXXXXXXXXXX--------------------------

Chorus
----------------------------------------------
-------44---------44---------44----------44---
-------77---------77---------77----------77---
-444--------444--------444---------444--------
-444--------444--------444---------444--------
-444--------444--------444---------444--------

-----------------------------------------
-------33---------33---------33----------
-------66---------66---------66----------
-000--------000--------000---------000---
-000--------000--------000---------000---
-000--------000--------000---------000---

Verse
----------------------------------------------------------------
---9--5-----9--5------9--5------9------9--5-----9--5-----9--5---
----------------------------------------------------------------
----------------------------------------------------------------
----------------------------------------------------------------
----------------------------------------------------------------

--0--0--0--0--0--0--0--0--0--0--0--0---------
--4--4--4--4--4--4--4--4--4--4--4--4--00-----
--6--6--6--6--6--6--6--6--6--6--6--6---------
-----------------------------------------7---
---------------------------------------------
---------------------------------------------

Bridge
---------------------------------------------------
---------------------------------------------------
---------------------------------------------------
-----666------666-----66------666-----666-----66---
---------------------------------------------------
-444------444------44-----222-----222------22------

----------------------------------------------------
----------------------------------------------------
----------------------------------------------------
-----666------666-----66------666------666------66-- 2x
----------------------------------------------------
-000------000------00-----222------222-------22-----

Bridge
---------------------------------------------------------------------
-12-12-12-12-12-12---10-10-10-10-10-10---9-9-9-9-9-9---7-7-7-7-7-7---
---------------------------------------------------------------------
--------------------------------------------------------------------- 2x
---------------------------------------------------------------------
---------------------------------------------------------------------

Outro
---000000----000000----000000----00000000000000---------
---555555----555555----555555----55555555555555---------
---888888----888888----888888----88888888888888---------
---000000----000000----000000----00000000000000---------
---------------------------------XXXXXXXXXXXXXX---------


Important: The song above is NOT stored on the Chordie server. The original song is hosted at www.xguitar.com. Chordie works as a search engine and provides on-the-fly formatting. Chordie does not index songs against artists'/composers' will. To remove this song please click here.

This song is displayed as text-only. Transposing and tuning is only available for chordpro-songs.

Login - add to songbook

Rating click stars to rate

Layout
Accuracy

SHARE PAGE  




You need to log in to post comments