Chordie logo


A Box Full of Sharp Objects (live)    Used



A Box Full Of Sharp Objects (Live)
The Used

This is the way Quinn plays it on the Warped Tour DVD (or at least i think).
Hopefully, it's a close copy of what he plays. There are alot of harmonics and
some sloppy playing which makes it sound even better. So try it out...

Intro               2x |2nd Part of the Intro
e------------0---0-0---|---------0--0-0-----------------
B--------------0-0-0---|---------0--0-0-----------------
G--6-6-6-6---8-8-8-8---|--6--6---8--8-8---9-9-9-9-9-9---
D--6-6-6-6---x-x-x-x---|--6--6---x--x-x---x-x-x-x-x-x---
A--4-4-4-4-0-7-7-7-7---|--4--4-4s7--7-7---7-7-7-7-7-7---
E--4-4-4-4-0-5-5-5-5---|--4--4---5--5-5--0--------------

Riff 1
e-----------------------------------------------------------------------
B-----------------------------------------------------------------------
G-----------8-8-8-----------8-8-----------8-8-8-----------8-8---8-8-8---
D--6--6---6-----6-6-----6-6------6--6---6-----6-6-----6-6-------x-x-x---
A--4----4-----------4-4----------7----7-----------7-7-----------7-7-7---
E---------------------------------------------------------------5-5-5---
PM -  - - - - - - - - - - - - -  -  - - - - - - - - - - - - -

Verse 1                                               2x |
e--------------------------------------------------------|---------
B--------------------------------------------------------|---------
G---------8---8---8---8--------------8---8---8---8-------|---------
D--x-x-x-x6-x-6-x-6-x-6-x-x-x-x-x-x-x6-x-6-x-6-x-6-x-x-x-|---------
A--4-4-4-44-4-4-4-4-4-4-4-4-4-7-7-7-77-7-7-7-7-7-7-7-7-7-|--7-7-7--
E--------------------------------------------------------|--0-0-0--
PM - - - -  -   -   -   - - - - - - -  -   -   -   - - -

Pre-Chorus
e----------------------------------------------------------------
B----------------------------------------------------------------
G----8---8--8--8--8----8---8--8--8--8--8~------------------------
D---6-(6)6--6--6--6---6-(6)6--6--6--6--x-------------------------
A--4-----4--4--4--4--7-----4--4--4--4--7~------------------------
E--------------------------------------5~------------------5\----

Chorus 2x
e------------------------------------------------
B------------------------------------------------
G--6-6---9-9-------8-8-8-6-6---9-9-----11-11-11--
D--6-6---x-x-7-7---8-8-8-6-6---9-9-7-7--x--x--x--
A--4-4-4-7-7-7-7---6-6-6-4-4-4-7-7-7-7--9--9--9--
E--------0-0-5-5-5-----------------5-5-----------

Verse 2
A bunch of feedback. Do whatever.

2nd Pre-Chorus
e---------------------------------------
B---------------------------------------
G----8---8--8--8--8----8---8--8--8--8---
D---6-(6)6--6--6--6---6-(6)6--6--6--6---
A--4-----4--4--4--4--7-----4--4--4--4---
E---------------------------------------

2nd Chorus once, then play the first chorus
e------------------------------------------------
B------------------------------------------------
G--6~--------------8-8-8-6-6---9-9-----11-11-11--
D--6~--------7-7---8-8-8-6-6---9-9-7-7--x--x--x--
A--4~--------7-7---6-6-6-4-4-4-7-7-7-7--9--9--9--
E------------5-5-5-----------------5-5-----------

Bridge (as many times nescessary)
e-------------------------------------------------
B-------------------------------------------------
G--13-13-13-13-13-13-13-13-13-13-13-13-13-13-13---
D---x--x--x--x--x--x--x--x--x--x--x--x--x--x--x---
A--11-11-11-11-11-11-11-11-11-11-11-11-11-11-11---
E-------------------------------------------------

In The Maybe Memories DVD he plays:
e----------------------------------------
B--9-9-9-9-9-9-9-9-9-9-9-9-9-9-9-9-9-9---
G--x-x-x-x-x-x-x-x-x-x-x-x-x-x-x-x-x-x---
D--6-6-6-6-6-6-6-6-6-6-6-6-6-6-6-6-6-6---
A----------------------------------------
E----------------------------------------

Intro
Riff 1 (Palm Mute the last 3 chords)
Pre-Chorus
Chorus 2x

End of last chorus
e-----------------------------------------------------------------
B-----------------------------------------------------------------
G--6~-----------------------------8---8--8------8----8-8---8-8----
D--6~-----------------------------x---x--x------x----x-x---x-x----
A--4~-----------------------------7---7--7------7----7-7---7-7----
E---------------------------------5---5--5------5----5-5---5-5---- INTRO


Important: The song above is NOT stored on the Chordie server. The original song is hosted at www.xguitar.com. Chordie works as a search engine and provides on-the-fly formatting. Chordie does not index songs against artists/composers will. To remove this song please click here.

This song is displayed as text-only. Transposing and tuning is only available for chordpro-songs.

Login - add to songbook

Rating click stars to rate

Layout
Accuracy

SHARE PAGE  




You need to log in to post comments